  0
SECTION
  2
HEADER
  9
$ACADVER
  1
AC1015
  9
$ACADMAINTVER
 70
    18
  9
$DWGCODEPAGE
  3
ANSI_1252
  9
$INSBASE
 10
0.0
 20
0.0
 30
0.0
  9
$EXTMIN
 10
-194.1000358691672
 20
-214.3433986058731
 30
-0.0015258207003583
  9
$EXTMAX
 10
242.1075447161072
 20
242.6040808283772
 30
0.0000000349246037
  9
$LIMMIN
 10
0.0
 20
0.0
  9
$LIMMAX
 10
420.0
 20
297.0
  9
$ORTHOMODE
 70
     0
  9
$REGENMODE
 70
     1
  9
$FILLMODE
 70
     1
  9
$QTEXTMODE
 70
     0
  9
$MIRRTEXT
 70
     0
  9
$LTSCALE
 40
1.0
  9
$ATTMODE
 70
     1
  9
$TEXTSIZE
 40
2.5
  9
$TRACEWID
 40
1.0
  9
$TEXTSTYLE
  7
Standard
  9
$CLAYER
  8
0
  9
$CELTYPE
  6
ByLayer
  9
$CECOLOR
 62
   256
  9
$CELTSCALE
 40
1.0
  9
$DISPSILH
 70
     0
  9
$DIMSCALE
 40
1.0
  9
$DIMASZ
 40
2.5
  9
$DIMEXO
 40
0.625
  9
$DIMDLI
 40
3.75
  9
$DIMRND
 40
0.0
  9
$DIMDLE
 40
0.0
  9
$DIMEXE
 40
1.25
  9
$DIMTP
 40
0.0
  9
$DIMTM
 40
0.0
  9
$DIMTXT
 40
2.5
  9
$DIMCEN
 40
2.5
  9
$DIMTSZ
 40
0.0
  9
$DIMTOL
 70
     0
  9
$DIMLIM
 70
     0
  9
$DIMTIH
 70
     0
  9
$DIMTOH
 70
     0
  9
$DIMSE1
 70
     0
  9
$DIMSE2
 70
     0
  9
$DIMTAD
 70
     1
  9
$DIMZIN
 70
     8
  9
$DIMBLK
  1

  9
$DIMASO
 70
     1
  9
$DIMSHO
 70
     1
  9
$DIMPOST
  1

  9
$DIMAPOST
  1

  9
$DIMALT
 70
     0
  9
$DIMALTD
 70
     3
  9
$DIMALTF
 40
0.03937007874016
  9
$DIMLFAC
 40
1.0
  9
$DIMTOFL
 70
     1
  9
$DIMTVP
 40
0.0
  9
$DIMTIX
 70
     0
  9
$DIMSOXD
 70
     0
  9
$DIMSAH
 70
     0
  9
$DIMBLK1
  1

  9
$DIMBLK2
  1

  9
$DIMSTYLE
  2
ISO-25
  9
$DIMCLRD
 70
     0
  9
$DIMCLRE
 70
     0
  9
$DIMCLRT
 70
     0
  9
$DIMTFAC
 40
1.0
  9
$DIMGAP
 40
0.625
  9
$DIMJUST
 70
     0
  9
$DIMSD1
 70
     0
  9
$DIMSD2
 70
     0
  9
$DIMTOLJ
 70
     0
  9
$DIMTZIN
 70
     8
  9
$DIMALTZ
 70
     0
  9
$DIMALTTZ
 70
     0
  9
$DIMUPT
 70
     0
  9
$DIMDEC
 70
     2
  9
$DIMTDEC
 70
     2
  9
$DIMALTU
 70
     2
  9
$DIMALTTD
 70
     3
  9
$DIMTXSTY
  7
Standard
  9
$DIMAUNIT
 70
     0
  9
$DIMADEC
 70
     0
  9
$DIMALTRND
 40
0.0
  9
$DIMAZIN
 70
     0
  9
$DIMDSEP
 70
    44
  9
$DIMATFIT
 70
     3
  9
$DIMFRAC
 70
     0
  9
$DIMLDRBLK
  1

  9
$DIMLUNIT
 70
     2
  9
$DIMLWD
 70
    -2
  9
$DIMLWE
 70
    -2
  9
$DIMTMOVE
 70
     0
  9
$LUNITS
 70
     2
  9
$LUPREC
 70
     4
  9
$SKETCHINC
 40
1.0
  9
$FILLETRAD
 40
0.0
  9
$AUNITS
 70
     0
  9
$AUPREC
 70
     0
  9
$MENU
  1
.
  9
$ELEVATION
 40
0.0
  9
$PELEVATION
 40
0.0
  9
$THICKNESS
 40
0.0
  9
$LIMCHECK
 70
     0
  9
$CHAMFERA
 40
0.0
  9
$CHAMFERB
 40
0.0
  9
$CHAMFERC
 40
0.0
  9
$CHAMFERD
 40
0.0
  9
$SKPOLY
 70
     0
  9
$TDCREATE
 40
2460398.356956019
  9
$TDUCREATE
 40
2460398.065289352
  9
$TDUPDATE
 40
2460398.373969908
  9
$TDUUPDATE
 40
2460398.082303241
  9
$TDINDWG
 40
0.0076504630
  9
$TDUSRTIMER
 40
0.0076504630
  9
$USRTIMER
 70
     1
  9
$ANGBASE
 50
0.0
  9
$ANGDIR
 70
     0
  9
$PDMODE
 70
     0
  9
$PDSIZE
 40
0.0
  9
$PLINEWID
 40
0.0
  9
$SPLFRAME
 70
     0
  9
$SPLINETYPE
 70
     6
  9
$SPLINESEGS
 70
     8
  9
$HANDSEED
  5
7B6B
  9
$SURFTAB1
 70
     6
  9
$SURFTAB2
 70
     6
  9
$SURFTYPE
 70
     6
  9
$SURFU
 70
     6
  9
$SURFV
 70
     6
  9
$UCSBASE
  2

  9
$UCSNAME
  2

  9
$UCSORG
 10
0.0
 20
0.0
 30
0.0
  9
$UCSXDIR
 10
1.0
 20
0.0
 30
0.0
  9
$UCSYDIR
 10
0.0
 20
1.0
 30
0.0
  9
$UCSORTHOREF
  2

  9
$UCSORTHOVIEW
 70
     0
  9
$UCSORGTOP
 10
0.0
 20
0.0
 30
0.0
  9
$UCSORGBOTTOM
 10
0.0
 20
0.0
 30
0.0
  9
$UCSORGLEFT
 10
0.0
 20
0.0
 30
0.0
  9
$UCSORGRIGHT
 10
0.0
 20
0.0
 30
0.0
  9
$UCSORGFRONT
 10
0.0
 20
0.0
 30
0.0
  9
$UCSORGBACK
 10
0.0
 20
0.0
 30
0.0
  9
$PUCSBASE
  2

  9
$PUCSNAME
  2

  9
$PUCSORG
 10
0.0
 20
0.0
 30
0.0
  9
$PUCSXDIR
 10
1.0
 20
0.0
 30
0.0
  9
$PUCSYDIR
 10
0.0
 20
1.0
 30
0.0
  9
$PUCSORTHOREF
  2

  9
$PUCSORTHOVIEW
 70
     0
  9
$PUCSORGTOP
 10
0.0
 20
0.0
 30
0.0
  9
$PUCSORGBOTTOM
 10
0.0
 20
0.0
 30
0.0
  9
$PUCSORGLEFT
 10
0.0
 20
0.0
 30
0.0
  9
$PUCSORGRIGHT
 10
0.0
 20
0.0
 30
0.0
  9
$PUCSORGFRONT
 10
0.0
 20
0.0
 30
0.0
  9
$PUCSORGBACK
 10
0.0
 20
0.0
 30
0.0
  9
$USERI1
 70
     0
  9
$USERI2
 70
     0
  9
$USERI3
 70
     0
  9
$USERI4
 70
     0
  9
$USERI5
 70
     0
  9
$USERR1
 40
0.0
  9
$USERR2
 40
0.0
  9
$USERR3
 40
0.0
  9
$USERR4
 40
0.0
  9
$USERR5
 40
0.0
  9
$WORLDVIEW
 70
     1
  9
$SHADEDGE
 70
     3
  9
$SHADEDIF
 70
    70
  9
$TILEMODE
 70
     1
  9
$MAXACTVP
 70
    48
  9
$PINSBASE
 10
0.0
 20
0.0
 30
0.0
  9
$PLIMCHECK
 70
     0
  9
$PEXTMIN
 10
0.0
 20
0.0
 30
0.0
  9
$PEXTMAX
 10
0.0
 20
0.0
 30
0.0
  9
$PLIMMIN
 10
0.0
 20
0.0
  9
$PLIMMAX
 10
12.0
 20
9.0
  9
$UNITMODE
 70
     0
  9
$VISRETAIN
 70
     1
  9
$PLINEGEN
 70
     0
  9
$PSLTSCALE
 70
     1
  9
$TREEDEPTH
 70
  3020
  9
$CMLSTYLE
  2
Standard
  9
$CMLJUST
 70
     0
  9
$CMLSCALE
 40
20.0
  9
$PROXYGRAPHICS
 70
     1
  9
$MEASUREMENT
 70
     1
  9
$CELWEIGHT
370
    -1
  9
$ENDCAPS
280
     0
  9
$JOINSTYLE
280
     0
  9
$LWDISPLAY
290
     0
  9
$INSUNITS
 70
     4
  9
$HYPERLINKBASE
  1

  9
$STYLESHEET
  1

  9
$XEDIT
290
     1
  9
$CEPSNTYPE
380
     0
  9
$PSTYLEMODE
290
     1
  9
$FINGERPRINTGUID
  2
{6C1266EE-7BC1-BF4A-B059-A6E7702B10CE}
  9
$VERSIONGUID
  2
{EAC34DA7-7A69-8846-97A6-8A700DF8AA74}
  9
$EXTNAMES
290
     1
  9
$PSVPSCALE
 40
0.0
  9
$OLESTARTUP
290
     0
  0
ENDSEC
  0
SECTION
  2
CLASSES
  0
CLASS
  1
ACDBDICTIONARYWDFLT
  2
AcDbDictionaryWithDefault
  3
ObjectDBX Classes
 90
        0
280
     0
281
     0
  0
CLASS
  1
ACDBPLACEHOLDER
  2
AcDbPlaceHolder
  3
ObjectDBX Classes
 90
        0
280
     0
281
     0
  0
CLASS
  1
LAYOUT
  2
AcDbLayout
  3
ObjectDBX Classes
 90
        0
280
     0
281
     0
  0
CLASS
  1
DICTIONARYVAR
  2
AcDbDictionaryVar
  3
ObjectDBX Classes
 90
        0
280
     0
281
     0
  0
CLASS
  1
TABLESTYLE
  2
AcDbTableStyle
  3
ObjectDBX Classes
 90
     4095
280
     0
281
     0
  0
CLASS
  1
MATERIAL
  2
AcDbMaterial
  3
ObjectDBX Classes
 90
     1153
280
     0
281
     0
  0
CLASS
  1
VISUALSTYLE
  2
AcDbVisualStyle
  3
ObjectDBX Classes
 90
     4095
280
     0
281
     0
  0
CLASS
  1
SCALE
  2
AcDbScale
  3
ObjectDBX Classes
 90
     1153
280
     0
281
     0
  0
CLASS
  1
MLEADERSTYLE
  2
AcDbMLeaderStyle
  3
ACDB_MLEADERSTYLE_CLASS
 90
     4095
280
     0
281
     0
  0
CLASS
  1
CELLSTYLEMAP
  2
AcDbCellStyleMap
  3
ObjectDBX Classes
 90
     1152
280
     0
281
     0
  0
CLASS
  1
EXACXREFPANELOBJECT
  2
ExAcXREFPanelObject
  3
EXAC_ESW
 90
    33793
280
     0
281
     0
  0
CLASS
  1
NPOCOLLECTION
  2
AcDbImpNonPersistentObjectsCollection
  3
ObjectDBX Classes
 90
    33921
280
     0
281
     0
  0
CLASS
  1
LAYER_INDEX
  2
AcDbLayerIndex
  3
ObjectDBX Classes
 90
    32768
280
     0
281
     0
  0
CLASS
  1
SPATIAL_INDEX
  2
AcDbSpatialIndex
  3
ObjectDBX Classes
 90
    32768
280
     0
281
     0
  0
CLASS
  1
IDBUFFER
  2
AcDbIdBuffer
  3
ObjectDBX Classes
 90
    32768
280
     0
281
     0
  0
CLASS
  1
ACDBSECTIONVIEWSTYLE
  2
AcDbSectionViewStyle
  3
ObjectDBX Classes
 90
     1025
280
     0
281
     0
  0
CLASS
  1
ACDBDETAILVIEWSTYLE
  2
AcDbDetailViewStyle
  3
ObjectDBX Classes
 90
     1025
280
     0
281
     0
  0
CLASS
  1
XRECORD
  2
AcDbXrecord
  3
ObjectDBX Classes
 90
        0
280
     0
281
     0
  0
ENDSEC
  0
SECTION
  2
TABLES
  0
TABLE
  2
VPORT
  5
8
102
{ACAD_XDICTIONARY
360
7A79
102
}
330
0
100
AcDbSymbolTable
 70
     1
  0
VPORT
  5
EA
330
8
100
AcDbSymbolTableRecord
100
AcDbViewportTableRecord
  2
*Active
 70
     0
 10
0.0
 20
0.0
 11
1.0
 21
1.0
 12
24.00375442347
 22
14.13034111125202
 13
0.0
 23
0.0
 14
10.0
 24
10.0
 15
10.0
 25
10.0
 16
0.0
 26
0.0
 36
1.0
 17
0.0
 27
0.0
 37
0.0
 40
485.9222342825151
 41
0.9846153846153846
 42
50.0
 43
0.0
 44
0.0
 50
0.0
 51
0.0
 71
     0
 72
  1000
 73
     1
 74
     3
 75
     0
 76
     1
 77
     0
 78
     0
281
     0
 65
     1
110
0.0
120
0.0
130
0.0
111
1.0
121
0.0
131
0.0
112
0.0
122
1.0
132
0.0
 79
     0
146
0.0
1001
ACAD_NAV_VCDISPLAY
1070
     3
  0
ENDTAB
  0
TABLE
  2
LTYPE
  5
5
330
0
100
AcDbSymbolTable
 70
     1
  0
LTYPE
  5
14
330
5
100
AcDbSymbolTableRecord
100
AcDbLinetypeTableRecord
  2
ByBlock
 70
     0
  3

 72
    65
 73
     0
 40
0.0
  0
LTYPE
  5
15
330
5
100
AcDbSymbolTableRecord
100
AcDbLinetypeTableRecord
  2
ByLayer
 70
     0
  3

 72
    65
 73
     0
 40
0.0
  0
LTYPE
  5
16
330
5
100
AcDbSymbolTableRecord
100
AcDbLinetypeTableRecord
  2
Continuous
 70
     0
  3
Solid line
 72
    65
 73
     0
 40
0.0
  0
ENDTAB
  0
TABLE
  2
LAYER
  5
2
102
{ACAD_XDICTIONARY
360
1FF
102
}
330
0
100
AcDbSymbolTable
 70
     1
  0
LAYER
  5
10
102
{ACAD_XDICTIONARY
360
13C
102
}
330
2
100
AcDbSymbolTableRecord
100
AcDbLayerTableRecord
  2
0
 70
     0
 62
     7
  6
Continuous
370
    -3
390
F
  0
ENDTAB
  0
TABLE
  2
STYLE
  5
3
330
0
100
AcDbSymbolTable
 70
     1
  0
STYLE
  5
11
330
3
100
AcDbSymbolTableRecord
100
AcDbTextStyleTableRecord
  2
Standard
 70
     0
 40
0.0
 41
1.0
 50
0.0
 71
     0
 42
2.5
  3
arial.ttf
  4

1001
ACAD
1000
Arial
1071
       34
  0
ENDTAB
  0
TABLE
  2
VIEW
  5
6
330
0
100
AcDbSymbolTable
 70
     0
  0
ENDTAB
  0
TABLE
  2
UCS
  5
7
330
0
100
AcDbSymbolTable
 70
     0
  0
ENDTAB
  0
TABLE
  2
APPID
  5
9
330
0
100
AcDbSymbolTable
 70
     8
  0
APPID
  5
12
330
9
100
AcDbSymbolTableRecord
100
AcDbRegAppTableRecord
  2
ACAD
 70
     0
  0
APPID
  5
9E
330
9
100
AcDbSymbolTableRecord
100
AcDbRegAppTableRecord
  2
ACAD_PSEXT
 70
     0
  0
APPID
  5
133
330
9
100
AcDbSymbolTableRecord
100
AcDbRegAppTableRecord
  2
AcadAnnoPO
 70
     0
  0
APPID
  5
134
330
9
100
AcDbSymbolTableRecord
100
AcDbRegAppTableRecord
  2
AcadAnnotative
 70
     0
  0
APPID
  5
135
330
9
100
AcDbSymbolTableRecord
100
AcDbRegAppTableRecord
  2
ACAD_DSTYLE_DIMJAG
 70
     0
  0
APPID
  5
136
330
9
100
AcDbSymbolTableRecord
100
AcDbRegAppTableRecord
  2
ACAD_DSTYLE_DIMTALN
 70
     0
  0
APPID
  5
165
330
9
100
AcDbSymbolTableRecord
100
AcDbRegAppTableRecord
  2
ACAD_MLEADERVER
 70
     0
  0
APPID
  5
217
330
9
100
AcDbSymbolTableRecord
100
AcDbRegAppTableRecord
  2
ACAD_NAV_VCDISPLAY
 70
     0
  0
ENDTAB
  0
TABLE
  2
DIMSTYLE
  5
A
330
0
100
AcDbSymbolTable
 70
     1
100
AcDbDimStyleTable
 71
     0
  0
DIMSTYLE
105
27
330
A
100
AcDbSymbolTableRecord
100
AcDbDimStyleTableRecord
  2
ISO-25
 70
     0
 41
2.5
 42
0.625
 43
3.75
 44
1.25
 73
     0
 74
     0
 77
     1
 78
     8
140
2.5
141
2.5
143
0.03937007874016
147
0.625
171
     3
172
     1
271
     2
272
     2
274
     3
278
    44
283
     0
284
     8
340
11
  0
ENDTAB
  0
TABLE
  2
BLOCK_RECORD
  5
1
330
0
100
AcDbSymbolTable
 70
     7
  0
BLOCK_RECORD
  5
1F
102
{ACAD_XDICTIONARY
360
1CE
102
}
330
1
100
AcDbSymbolTableRecord
100
AcDbBlockTableRecord
  2
*Model_Space
340
22
  0
BLOCK_RECORD
  5
D2
102
{ACAD_XDICTIONARY
360
7A2C
102
}
330
1
100
AcDbSymbolTableRecord
100
AcDbBlockTableRecord
  2
*Paper_Space
340
D3
  0
BLOCK_RECORD
  5
D6
102
{ACAD_XDICTIONARY
360
7A2E
102
}
330
1
100
AcDbSymbolTableRecord
100
AcDbBlockTableRecord
  2
*Paper_Space0
340
D7
  0
BLOCK_RECORD
  5
78B3
330
1
100
AcDbSymbolTableRecord
100
AcDbBlockTableRecord
  2
SAE300_60_2-Front
340
0
102
{BLKREFS
331
7A22
102
}
  0
BLOCK_RECORD
  5
7901
330
1
100
AcDbSymbolTableRecord
100
AcDbBlockTableRecord
  2
SAE300_60_2-Left
340
0
102
{BLKREFS
331
7A23
102
}
  0
BLOCK_RECORD
  5
791E
330
1
100
AcDbSymbolTableRecord
100
AcDbBlockTableRecord
  2
SAE300_60_2-Right
340
0
102
{BLKREFS
331
7A24
102
}
  0
BLOCK_RECORD
  5
793B
330
1
100
AcDbSymbolTableRecord
100
AcDbBlockTableRecord
  2
SAE300_60_2-Top
340
0
102
{BLKREFS
331
7A25
102
}
  0
BLOCK_RECORD
  5
796F
330
1
100
AcDbSymbolTableRecord
100
AcDbBlockTableRecord
  2
SAE300_60_2-Bottom
340
0
102
{BLKREFS
331
7A26
102
}
  0
BLOCK_RECORD
  5
799A
330
1
100
AcDbSymbolTableRecord
100
AcDbBlockTableRecord
  2
SAE300_60_2-ISO
340
0
102
{BLKREFS
331
7A27
102
}
  0
ENDTAB
  0
ENDSEC
  0
SECTION
  2
BLOCKS
  0
BLOCK
  5
20
330
1F
100
AcDbEntity
  8
0
100
AcDbBlockBegin
  2
*Model_Space
 70
     0
 10
0.0
 20
0.0
 30
0.0
  3
*Model_Space
  1

  0
ENDBLK
  5
21
330
1F
100
AcDbEntity
  8
0
100
AcDbBlockEnd
  0
BLOCK
  5
D4
330
D2
100
AcDbEntity
 67
     1
  8
0
100
AcDbBlockBegin
  2
*Paper_Space
 70
     0
 10
0.0
 20
0.0
 30
0.0
  3
*Paper_Space
  1

  0
ENDBLK
  5
D5
330
D2
100
AcDbEntity
 67
     1
  8
0
100
AcDbBlockEnd
  0
BLOCK
  5
D8
330
D6
100
AcDbEntity
 67
     1
  8
0
100
AcDbBlockBegin
  2
*Paper_Space0
 70
     0
 10
0.0
 20
0.0
 30
0.0
  3
*Paper_Space0
  1

  0
ENDBLK
  5
D9
330
D6
100
AcDbEntity
 67
     1
  8
0
100
AcDbBlockEnd
  0
BLOCK
  5
78B4
330
78B3
100
AcDbEntity
  8
0
100
AcDbBlockBegin
  2
SAE300_60_2-Front
 70
     0
 10
0.0
 20
0.0
 30
0.0
  3
SAE300_60_2-Front
  1

  0
SPLINE
  5
78B6
330
78B3
100
AcDbEntity
  8
0
100
AcDbSpline
210
0.0
220
0.0
230
1.0
 70
     8
 71
     3
 72
    14
 73
    10
 74
     0
 42
0.000000001
 43
0.0000000001
 40
0.0
 40
0.0
 40
0.0
 40
0.0
 40
0.3435201403993635
 40
0.3435201403993635
 40
0.3435201403993635
 40
0.7570127568145829
 40
0.7570127568145829
 40
0.7570127568145829
 40
0.9986518290557198
 40
0.9986518290557198
 40
0.9986518290557198
 40
0.9986518290557198
 10
34.60606060606063
 20
12.56249999999998
 30
0.0
 10
34.28489935603197
 20
12.30248939774791
 30
0.0
 10
33.87245051750061
 20
12.0752862912304
 30
0.0
 10
33.47645515515054
 20
11.84407074683219
 30
0.0
 10
32.99979850766529
 20
11.56575833027945
 30
0.0
 10
32.53725634321003
 20
11.27136389233655
 30
0.0
 10
32.26239324894931
 20
10.85787118800866
 30
0.0
 10
32.10176725357773
 20
10.61623206439263
 30
0.0
 10
32.00111701135158
 20
10.36104189223511
 30
0.0
 10
32.00000923855748
 20
10.00595276584683
 30
0.0
  0
LINE
  5
78B7
330
78B3
100
AcDbEntity
  8
0
100
AcDbLine
 10
32.0
 20
12.56249999999998
 30
0.0
 11
34.0
 21
12.56249999999998
 31
0.0
  0
SPLINE
  5
78B8
330
78B3
100
AcDbEntity
  8
0
100
AcDbSpline
210
0.0
220
0.0
230
1.0
 70
     8
 71
     3
 72
    20
 73
    16
 74
     0
 42
0.000000001
 43
0.0000000001
 40
0.012072793722852
 40
0.012072793722852
 40
0.012072793722852
 40
0.012072793722852
 40
0.0124288508770691
 40
0.0124288508770691
 40
0.0135302217271105
 40
0.0135302217271105
 40
0.0142261533869137
 40
0.0142261533869137
 40
0.0153094160375251
 40
0.0153094160375251
 40
0.0162525248866815
 40
0.0162525248866815
 40
0.0174015733536773
 40
0.0174015733536773
 40
0.0202445336745424
 40
0.0202445336745424
 40
0.0202445336745424
 40
0.0202445336745424
 10
32.00029164702532
 20
10.05864902334336
 30
0.0
 10
32.00029164702503
 20
10.05864902331779
 30
0.0
 10
32.00029123369329
 20
10.0586129422115
 30
0.0
 10
32.00028772502057
 20
10.05830125779795
 30
0.0
 10
32.00028065344625
 20
10.05767569686734
 30
0.0
 10
32.00026146072328
 20
10.05580875756133
 30
0.0
 10
32.00025209701937
 20
10.05487008331277
 30
0.0
 10
32.00022447041413
 20
10.05189819480114
 30
0.0
 10
32.00020362500281
 20
10.04947455981127
 30
0.0
 10
32.0001655477985
 20
10.044226494574
 30
0.0
 10
32.00014800683278
 20
10.04146120927935
 30
0.0
 10
32.00011446921869
 20
10.03509374012391
 30
0.0
 10
32.00009956667935
 20
10.03145135009537
 30
0.0
 10
32.00006174351596
 20
10.0186799413369
 30
0.0
 10
32.0000591461585
 20
10.00931579016203
 30
0.0
 10
32.00007431501602
 20
10.0000000778712
 30
0.0
  0
SPLINE
  5
78B9
330
78B3
100
AcDbEntity
  8
0
100
AcDbSpline
210
0.0
220
0.0
230
1.0
 70
     8
 71
     3
 72
    20
 73
    16
 74
     0
 42
0.000000001
 43
0.0000000001
 40
0.005332931758086
 40
0.005332931758086
 40
0.005332931758086
 40
0.005332931758086
 40
0.005647638476645
 40
0.005647638476645
 40
0.0060463986064904
 40
0.0060463986064904
 40
0.0065307473364348
 40
0.0065307473364348
 40
0.0071940330737081
 40
0.0071940330737081
 40
0.0085673555834062
 40
0.0085673555834062
 40
0.0106389960673734
 40
0.0106389960673734
 40
0.011102445887939
 40
0.011102445887939
 40
0.011102445887939
 40
0.011102445887939
 10
32.00010883933678
 20
10.04546313426783
 30
0.0
 10
32.00010883931819
 20
10.04546313127671
 30
0.0
 10
32.00010796018914
 20
10.04532230029519
 30
0.0
 10
32.0001043733517
 20
10.04473468118069
 30
0.0
 10
32.00010121339596
 20
10.04421103324466
 30
0.0
 10
32.0000928678942
 20
10.04276717289152
 30
0.0
 10
32.00008734603741
 20
10.04177610101502
 30
0.0
 10
32.00007384262111
 20
10.03918105364913
 30
0.0
 10
32.0000657114922
 20
10.03748299309593
 30
0.0
 10
32.0000429801062
 20
10.03216377976263
 30
0.0
 10
32.00002983085888
 20
10.0282323632328
 30
0.0
 10
32.00000644319696
 20
10.01793194600463
 30
0.0
 10
32.00000107524835
 20
10.01126252374423
 30
0.0
 10
32.00000622906572
 20
10.00302763760119
 30
0.0
 10
32.00000763232317
 20
10.00151582244179
 30
0.0
 10
32.0000094837093
 20
10.00000001349922
 30
0.0
  0
SPLINE
  5
78BA
330
78B3
100
AcDbEntity
  8
0
100
AcDbSpline
210
0.0
220
0.0
230
1.0
 70
     8
 71
     3
 72
     8
 73
     4
 74
     0
 42
0.000000001
 43
0.0000000001
 40
0.0
 40
0.0
 40
0.0
 40
0.0
 40
0.0015511722965439
 40
0.0015511722965439
 40
0.0015511722965439
 40
0.0015511722965439
 10
29.99955984654373
 20
10.00000111615405
 30
0.0
 10
29.9995656532777
 20
10.0044688109841
 30
0.0
 10
29.99957076641539
 20
10.00884708259224
 30
0.0
 10
29.99957512909043
 20
10.01307591324373
 30
0.0
  0
SPLINE
  5
78BB
330
78B3
100
AcDbEntity
  8
0
100
AcDbSpline
210
0.0
220
0.0
230
1.0
 70
     8
 71
     3
 72
    16
 73
    12
 74
     0
 42
0.000000001
 43
0.0000000001
 40
0.0
 40
0.0
 40
0.0
 40
0.0
 40
0.0021186811690063
 40
0.0021186811690063
 40
0.0037963488475325
 40
0.0037963488475325
 40
0.0060490110173307
 40
0.0060490110173307
 40
0.0082160740732104
 40
0.0082160740732104
 40
0.0100715168673422
 40
0.0100715168673422
 40
0.0100715168673422
 40
0.0100715168673422
 10
29.99977770285797
 20
9.999996711300786
 30
0.0
 10
29.99967060184474
 20
10.0069626209496
 30
0.0
 10
29.99956026411915
 20
10.01406437694186
 30
0.0
 10
29.99936153534905
 20
10.02670814078433
 30
0.0
 10
29.99927271949026
 20
10.03230570792113
 30
0.0
 10
29.99907108313958
 20
10.04490248805034
 30
0.0
 10
29.99895813017077
 20
10.05187273933524
 30
0.0
 10
29.99876083666413
 20
10.06395003185285
 30
0.0
 10
29.99867338960619
 20
10.06925359838868
 30
0.0
 10
29.99853375467271
 20
10.07766822125187
 30
0.0
 10
29.99847718644944
 20
10.08105233810545
 30
0.0
 10
29.9984278989373
 20
10.08398349772325
 30
0.0
  0
SPLINE
  5
78BC
330
78B3
100
AcDbEntity
  8
0
100
AcDbSpline
210
0.0
220
0.0
230
1.0
 70
     8
 71
     3
 72
    34
 73
    30
 74
     0
 42
0.000000001
 43
0.0000000001
 40
0.0018826910063329
 40
0.0018826910063329
 40
0.0018826910063329
 40
0.0018826910063329
 40
0.0067931669775198
 40
0.0067931669775198
 40
0.0148581762427013
 40
0.0148581762427013
 40
0.02165716243411
 40
0.02165716243411
 40
0.0241181605677978
 40
0.0241181605677978
 40
0.0262721351168207
 40
0.0262721351168207
 40
0.0291183974769319
 40
0.0291183974769319
 40
0.031530761734795
 40
0.031530761734795
 40
0.0346506209189859
 40
0.0346506209189859
 40
0.0395925192859068
 40
0.0395925192859068
 40
0.0489047040206106
 40
0.0489047040206106
 40
0.0719038371417459
 40
0.0719038371417459
 40
0.1414749571341988
 40
0.1414749571341988
 40
0.2235343184442864
 40
0.2235343184442864
 40
0.2662176350994848
 40
0.2662176350994848
 40
0.2662176350994848
 40
0.2662176350994848
 10
29.99993408575564
 20
10.00382154300185
 30
0.0
 10
29.99986408235923
 20
10.00784010260614
 30
0.0
 10
29.99976229507169
 20
10.01358798895364
 30
0.0
 10
29.999436176094
 20
10.03150095241784
 30
0.0
 10
29.9991737909736
 20
10.04547905748205
 30
0.0
 10
29.99862147508564
 20
10.07412851639812
 30
0.0
 10
29.99834195422906
 20
10.08836978763523
 30
0.0
 10
29.99789287056906
 20
10.11129985209192
 30
0.0
 10
29.99776556978875
 20
10.11780783840361
 30
0.0
 10
29.99751102761404
 20
10.13092137172106
 30
0.0
 10
29.99738418372032
 20
10.13749599502125
 30
0.0
 10
29.99708160721122
 20
10.15339172500211
 30
0.0
 10
29.99689912594496
 20
10.16314759802724
 30
0.0
 10
29.99658164288983
 20
10.18063164071827
 30
0.0
 10
29.99644054079629
 20
10.18860762352337
 30
0.0
 10
29.99613963834452
 20
10.20613328490396
 30
0.0
 10
29.99598354352604
 20
10.21562306645739
 30
0.0
 10
29.99561575572645
 20
10.23897255822125
 30
0.0
 10
29.99542133084458
 20
10.25235292936827
 30
0.0
 10
29.9949263277797
 20
10.28908036027476
 30
0.0
 10
29.99467887913499
 20
10.31107662897914
 30
0.0
 10
29.99397377071499
 20
10.38483545406269
 30
0.0
 10
29.9937307580291
 20
10.43325128644238
 30
0.0
 10
29.99330496971719
 20
10.63524513261803
 30
0.0
 10
29.99455225585422
 20
10.81157714347419
 30
0.0
 10
29.99793365448523
 20
11.23302851796352
 30
0.0
 10
29.99943798482833
 20
11.48841649848839
 30
0.0
 10
29.99998708512246
 20
11.89240744888949
 30
0.0
 10
29.99998191116091
 20
12.03407841162583
 30
0.0
 10
29.99998937018702
 20
12.17586272151074
 30
0.0
  0
SPLINE
  5
78BD
330
78B3
100
AcDbEntity
  8
0
100
AcDbSpline
210
0.0
220
0.0
230
1.0
 70
     8
 71
     3
 72
    12
 73
     8
 74
     0
 42
0.000000001
 43
0.0000000001
 40
0.0
 40
0.0
 40
0.0
 40
0.0
 40
0.0030437042962784
 40
0.0030437042962784
 40
0.0059481041506685
 40
0.0059481041506685
 40
0.0077014641308082
 40
0.0077014641308082
 40
0.0077014641308082
 40
0.0077014641308082
 10
29.9999409522116
 20
9.99999987947082
 30
0.0
 10
29.99992879819981
 20
10.00696128005775
 30
0.0
 10
29.99991751862599
 20
10.01274901426941
 30
0.0
 10
29.99989988569951
 20
10.02086801900936
 30
0.0
 10
29.99989321745724
 20
10.02345476432973
 30
0.0
 10
29.99988738789289
 20
10.02558168401642
 30
0.0
 10
29.99988625762912
 20
10.02594367652225
 30
0.0
 10
29.99988625762917
 20
10.02594367650523
 30
0.0
  0
SPLINE
  5
78BE
330
78B3
100
AcDbEntity
  8
0
100
AcDbSpline
210
0.0
220
0.0
230
1.0
 70
     8
 71
     3
 72
     8
 73
     4
 74
     0
 42
0.000000001
 43
0.0000000001
 40
0.0
 40
0.0
 40
0.0
 40
0.0
 40
0.0007120106518456
 40
0.0007120106518456
 40
0.0007120106518456
 40
0.0007120106518456
 10
34.60611379963712
 20
12.56243160914648
 30
0.0
 10
34.60533817500266
 20
12.56182867003434
 30
0.0
 10
34.60453867261897
 20
12.56120755243551
 30
0.0
 10
34.60373319760782
 20
12.56058166049445
 30
0.0
  0
SPLINE
  5
78BF
330
78B3
100
AcDbEntity
  8
0
100
AcDbSpline
210
0.0
220
0.0
230
1.0
 70
     8
 71
     3
 72
     8
 73
     4
 74
     0
 42
0.000000001
 43
0.0000000001
 40
0.0001369350455217
 40
0.0001369350455217
 40
0.0001369350455217
 40
0.0001369350455217
 40
0.0006732102234762
 40
0.0006732102234762
 40
0.0006732102234762
 40
0.0006732102234762
 10
34.60523147098913
 20
12.5617457801012
 30
0.0
 10
34.6040841103581
 20
12.56082244637439
 30
0.0
 10
34.60290028248321
 20
12.55987068968725
 30
0.0
 10
34.60168732547706
 20
12.55889643365721
 30
0.0
  0
LINE
  5
78C0
330
78B3
100
AcDbEntity
  8
0
100
AcDbLine
 10
27.99999999999999
 20
-2.0
 30
0.0
 11
-27.99999999999999
 21
-2.000000000000003
 31
0.0
  0
LINE
  5
78C1
330
78B3
100
AcDbEntity
  8
0
100
AcDbLine
 10
-27.99999999999999
 20
0.0
 30
0.0
 11
27.99999999999999
 21
0.0
 31
0.0
  0
LINE
  5
78C2
330
78B3
100
AcDbEntity
  8
0
100
AcDbLine
 10
-34.0
 20
12.56249999999998
 30
0.0
 11
-32.0
 21
12.56249999999998
 31
0.0
  0
SPLINE
  5
78C3
330
78B3
100
AcDbEntity
  8
0
100
AcDbSpline
210
0.0
220
0.0
230
1.0
 70
     8
 71
     3
 72
    14
 73
    10
 74
     0
 42
0.000000001
 43
0.0000000001
 40
0.0
 40
0.0
 40
0.0
 40
0.0
 40
0.3435201403993635
 40
0.3435201403993635
 40
0.3435201403993635
 40
0.7570127568145829
 40
0.7570127568145829
 40
0.7570127568145829
 40
0.9986524678034275
 40
0.9986524678034275
 40
0.9986524678034275
 40
0.9986524678034275
 10
-34.60606060606063
 20
12.56249999999998
 30
0.0
 10
-34.28489935603197
 20
12.30248939774791
 30
0.0
 10
-33.87245051750061
 20
12.0752862912304
 30
0.0
 10
-33.47645515515054
 20
11.84407074683219
 30
0.0
 10
-32.99979850766529
 20
11.56575833027945
 30
0.0
 10
-32.53725634321003
 20
11.27136389233655
 30
0.0
 10
-32.26239324894931
 20
10.85787118800866
 30
0.0
 10
-32.10176682897966
 20
10.61623142564479
 30
0.0
 10
-32.00111647923515
 20
10.36104054309776
 30
0.0
 10
-32.00000922977471
 20
10.00594994992142
 30
0.0
  0
SPLINE
  5
78C4
330
78B3
100
AcDbEntity
  8
0
100
AcDbSpline
210
0.0
220
0.0
230
1.0
 70
     8
 71
     3
 72
    30
 73
    26
 74
     0
 42
0.000000001
 43
0.0000000001
 40
0.0
 40
0.0
 40
0.0
 40
0.0
 40
0.065551342964969
 40
0.065551342964969
 40
0.1471084880359279
 40
0.1471084880359279
 40
0.186491541617018
 40
0.186491541617018
 40
0.2244287007084254
 40
0.2244287007084254
 40
0.233902522873442
 40
0.233902522873442
 40
0.2360478139148359
 40
0.2360478139148359
 40
0.2376817992252346
 40
0.2376817992252346
 40
0.2393184066631278
 40
0.2393184066631278
 40
0.2426422771710136
 40
0.2426422771710136
 40
0.2492709696262116
 40
0.2492709696262116
 40
0.2559206221853636
 40
0.2559206221853636
 40
0.2643718038764155
 40
0.2643718038764155
 40
0.2643718038764155
 40
0.2643718038764155
 10
-29.99998937018701
 20
12.17586272150974
 30
0.0
 10
-29.99997791491088
 20
11.95811600797769
 30
0.0
 10
-29.99997499580919
 20
11.7395511925921
 30
0.0
 10
-29.99847087262065
 20
11.27766062728483
 30
0.0
 10
-29.99618388741936
 20
11.03633066413668
 30
0.0
 10
-29.9939978614327
 20
10.72034886110772
 30
0.0
 10
-29.993561816063
 20
10.62410814299313
 30
0.0
 10
-29.99357524463138
 20
10.45120303269124
 30
0.0
 10
-29.99385398907103
 20
10.37643855034184
 30
0.0
 10
-29.99531495667199
 20
10.25912774548692
 30
0.0
 10
-29.99568020989569
 20
10.23363328524428
 30
0.0
 10
-29.99628323560038
 20
10.19771133911629
 30
0.0
 10
-29.99640193877479
 20
10.19083376332792
 30
0.0
 10
-29.99662079997936
 20
10.17847913078253
 30
0.0
 10
-29.99671935863351
 20
10.17301832031567
 30
0.0
 10
-29.99691927582833
 20
10.16211842557717
 30
0.0
 10
-29.99702160490593
 20
10.15662678208942
 30
0.0
 10
-29.99732644919639
 20
10.14045849101433
 30
0.0
 10
-29.99752713317071
 20
10.13007273422247
 30
0.0
 10
-29.99806275349043
 20
10.10255107151921
 30
0.0
 10
-29.99835960842069
 20
10.08751831590999
 30
0.0
 10
-29.99889075160934
 20
10.06022506744971
 30
0.0
 10
-29.99912909557128
 20
10.04779428323305
 30
0.0
 10
-29.99959874139695
 20
10.02272992848748
 30
0.0
 10
-29.99981365266339
 20
10.01072745584983
 30
0.0
 10
-29.99993408544851
 20
10.00381398664466
 30
0.0
  0
SPLINE
  5
78C5
330
78B3
100
AcDbEntity
  8
0
100
AcDbSpline
210
0.0
220
0.0
230
1.0
 70
     8
 71
     3
 72
     8
 73
     4
 74
     0
 42
0.000000001
 43
0.0000000001
 40
0.0195591544645249
 40
0.0195591544645249
 40
0.0195591544645249
 40
0.0195591544645249
 40
0.0211163010466976
 40
0.0211163010466976
 40
0.0211163010466976
 40
0.0211163010466976
 10
-29.99957522640359
 20
10.01307778050185
 30
0.0
 10
-29.99957087693733
 20
10.00886175340671
 30
0.0
 10
-29.99956567564213
 20
10.00448601815383
 30
0.0
 10
-29.99955984654372
 20
10.00000111615405
 30
0.0
  0
SPLINE
  5
78C6
330
78B3
100
AcDbEntity
  8
0
100
AcDbSpline
210
0.0
220
0.0
230
1.0
 70
     8
 71
     3
 72
    16
 73
    12
 74
     0
 42
0.000000001
 43
0.0000000001
 40
0.0328453658092821
 40
0.0328453658092821
 40
0.0328453658092821
 40
0.0328453658092821
 40
0.0346121739206404
 40
0.0346121739206404
 40
0.0362943907521725
 40
0.0362943907521725
 40
0.0388726343018707
 40
0.0388726343018707
 40
0.0410449475397744
 40
0.0410449475397744
 40
0.0429128452172715
 40
0.0429128452172715
 40
0.0429128452172715
 40
0.0429128452172715
 10
-29.99842789914844
 20
10.08398349503008
 30
0.0
 10
-29.9984748452233
 20
10.08119158217273
 30
0.0
 10
-29.99852835649645
 20
10.07799109530089
 30
0.0
 10
-29.99864665535286
 20
10.07086662519743
 30
0.0
 10
-29.9987114226219
 20
10.06694586345313
 30
0.0
 10
-29.99889097016947
 20
10.05600293218743
 30
0.0
 10
-29.99901757415541
 20
10.04822182190478
 30
0.0
 10
-29.99925928465449
 20
10.03315934936558
 30
0.0
 10
-29.99937543020152
 20
10.02584026698185
 30
0.0
 10
-29.99958650226729
 20
10.01237477407824
 30
0.0
 10
-29.99968327914912
 20
10.00613808200109
 30
0.0
 10
-29.99977770285798
 20
9.999996711300786
 30
0.0
  0
SPLINE
  5
78C7
330
78B3
100
AcDbEntity
  8
0
100
AcDbSpline
210
0.0
220
0.0
230
1.0
 70
     8
 71
     3
 72
    12
 73
     8
 74
     0
 42
0.000000001
 43
0.0000000001
 40
0.0138054908090483
 40
0.0138054908090483
 40
0.0138054908090483
 40
0.0138054908090483
 40
0.0169840789824205
 40
0.0169840789824205
 40
0.0189304805826054
 40
0.0189304805826054
 40
0.0215081391593504
 40
0.0215081391593504
 40
0.0215081391593504
 40
0.0215081391593504
 10
-29.99988625762916
 20
10.02594367650614
 30
0.0
 10
-29.99988625767167
 20
10.02594366280687
 30
0.0
 10
-29.99989009445472
 20
10.02472368729404
 30
0.0
 10
-29.99990126115673
 20
10.02016530958047
 30
0.0
 10
-29.99990666457475
 20
10.01781779784693
 30
0.0
 10
-29.99992101923504
 20
10.01095228816188
 30
0.0
 10
-29.99993065919699
 20
10.00589536476869
 30
0.0
 10
-29.99994095221159
 20
9.99999987947082
 30
0.0
  0
SPLINE
  5
78C8
330
78B3
100
AcDbEntity
  8
0
100
AcDbSpline
210
0.0
220
0.0
230
1.0
 70
     8
 71
     3
 72
    16
 73
    12
 74
     0
 42
0.000000001
 43
0.0000000001
 40
0.0
 40
0.0
 40
0.0
 40
0.0
 40
0.0041147701316449
 40
0.0041147701316449
 40
0.0050669104871179
 40
0.0050669104871179
 40
0.0058958097611175
 40
0.0058958097611175
 40
0.0067234516662797
 40
0.0067234516662797
 40
0.0081601476170593
 40
0.0081601476170593
 40
0.0081601476170593
 40
0.0081601476170593
 10
-32.00007431501602
 20
10.0000000778712
 30
0.0
 10
-32.00005236030867
 20
10.01348321177496
 30
0.0
 10
-32.00007089001977
 20
10.02743611946328
 30
0.0
 10
-32.00015518626344
 20
10.04264323902202
 30
0.0
 10
-32.00017334253697
 20
10.04537391438203
 30
0.0
 10
-32.00020680359935
 20
10.04980909451568
 30
0.0
 10
-32.00022231882109
 20
10.0516299838615
 30
0.0
 10
-32.00024914482347
 20
10.0545766917705
 30
0.0
 10
-32.00026066602984
 20
10.05573299464512
 30
0.0
 10
-32.00028457044059
 20
10.05805391643384
 30
0.0
 10
-32.00029164702544
 20
10.05864902335352
 30
0.0
 10
-32.00029164702534
 20
10.05864902334485
 30
0.0
  0
SPLINE
  5
78C9
330
78B3
100
AcDbEntity
  8
0
100
AcDbSpline
210
0.0
220
0.0
230
1.0
 70
     8
 71
     3
 72
    18
 73
    14
 74
     0
 42
0.000000001
 43
0.0000000001
 40
0.0
 40
0.0
 40
0.0
 40
0.0
 40
0.0020456842470402
 40
0.0020456842470402
 40
0.0037103799017643
 40
0.0037103799017643
 40
0.0047886574516434
 40
0.0047886574516434
 40
0.0054058580254765
 40
0.0054058580254765
 40
0.0056713593788757
 40
0.0056713593788757
 40
0.0057658587554596
 40
0.0057658587554596
 40
0.0057658587554596
 40
0.0057658587554596
 10
-32.0000094837093
 20
10.00000001349922
 30
0.0
 10
-32.00000131162407
 20
10.00669084892028
 30
0.0
 10
-32.00000211672947
 20
10.01335086235496
 30
0.0
 10
-32.0000199570904
 20
10.02478352040377
 30
0.0
 10
-32.00003405059742
 20
10.02972464704913
 30
0.0
 10
-32.00006334256445
 20
10.03706867853007
 30
0.0
 10
-32.00007727322297
 20
10.03991934632546
 30
0.0
 10
-32.00009604289422
 20
10.04334273319232
 30
0.0
 10
-32.00010217954246
 20
10.04437249635994
 30
0.0
 10
-32.00010716091151
 20
10.0451921827656
 30
0.0
 10
-32.00010818416224
 20
10.04535741757025
 30
0.0
 10
-32.00010876159604
 20
10.04545062474378
 30
0.0
 10
-32.00010883935342
 20
10.04546313694599
 30
0.0
 10
-32.00010883933674
 20
10.04546313425887
 30
0.0
  0
SPLINE
  5
78CA
330
78B3
100
AcDbEntity
  8
0
100
AcDbSpline
210
0.0
220
0.0
230
1.0
 70
     8
 71
     3
 72
     8
 73
     4
 74
     0
 42
0.000000001
 43
0.0000000001
 40
0.0
 40
0.0
 40
0.0
 40
0.0
 40
0.0007418618383515
 40
0.0007418618383515
 40
0.0007418618383515
 40
0.0007418618383515
 10
-32.00001228473425
 20
9.999999993596725
 30
0.0
 10
-32.00000823587387
 20
10.00154343844943
 30
0.0
 10
-32.00000411639133
 20
10.00317715695068
 30
0.0
 10
-31.99999998544274
 20
10.00485798902993
 30
0.0
  0
SPLINE
  5
78CB
330
78B3
100
AcDbEntity
  8
0
100
AcDbSpline
210
0.0
220
0.0
230
1.0
 70
     8
 71
     3
 72
     8
 73
     4
 74
     0
 42
0.000000001
 43
0.0000000001
 40
0.2821157023154358
 40
0.2821157023154358
 40
0.2821157023154358
 40
0.2821157023154358
 40
0.2826521572456611
 40
0.2826521572456611
 40
0.2826521572456611
 40
0.2826521572456611
 10
-34.60168882044282
 20
12.5588977766341
 30
0.0
 10
-34.60290205612327
 20
12.55987225649739
 30
0.0
 10
-34.60408409181557
 20
12.56082243836315
 30
0.0
 10
-34.60523157681018
 20
12.56174587217104
 30
0.0
  0
SPLINE
  5
78CC
330
78B3
100
AcDbEntity
  8
0
100
AcDbSpline
210
0.0
220
0.0
230
1.0
 70
     8
 71
     3
 72
     8
 73
     4
 74
     0
 42
0.000000001
 43
0.0000000001
 40
0.0169266925905993
 40
0.0169266925905993
 40
0.0169266925905993
 40
0.0169266925905993
 40
0.0176395326807355
 40
0.0176395326807355
 40
0.0176395326807355
 40
0.0176395326807355
 10
-34.60373955742486
 20
12.56058633458936
 30
0.0
 10
-34.60454415552297
 20
12.56121154512778
 30
0.0
 10
-34.60533727145895
 20
12.56182796765612
 30
0.0
 10
-34.60611379963713
 20
12.56243160914648
 30
0.0
  0
ARC
  5
78CD
330
78B3
100
AcDbEntity
  8
0
100
AcDbCircle
 10
-27.99999999999999
 20
2.0
 30
0.0
 40
4.000000000000003
100
AcDbArc
 50
180.0
 51
270.0
  0
ARC
  5
78CE
330
78B3
100
AcDbEntity
  8
0
100
AcDbCircle
 10
-27.99999999999999
 20
2.0
 30
0.0
 40
2.000000000000001
100
AcDbArc
 50
180.0
 51
270.0
  0
ARC
  5
78CF
330
78B3
100
AcDbEntity
  8
0
100
AcDbCircle
 10
27.99999999999999
 20
2.0
 30
0.0
 40
4.000000000000003
100
AcDbArc
 50
270.0
 51
0.0
  0
LINE
  5
78D0
330
78B3
100
AcDbEntity
  8
0
100
AcDbLine
 10
34.60606060606064
 20
12.56249999999998
 30
0.0
 11
71.50000000000005
 21
42.99999999999998
 31
0.0
  0
LINE
  5
78D1
330
78B3
100
AcDbEntity
  8
0
100
AcDbLine
 10
29.99999999999998
 20
10.0
 30
0.0
 11
30.0
 21
42.99999999999998
 31
0.0
  0
LINE
  5
78D2
330
78B3
100
AcDbEntity
  8
0
100
AcDbLine
 10
31.99999999999999
 20
10.0
 30
0.0
 11
29.99999999999998
 21
10.0
 31
0.0
  0
LINE
  5
78D3
330
78B3
100
AcDbEntity
  8
0
100
AcDbLine
 10
31.99999999999999
 20
42.99999999999998
 30
0.0
 11
31.99999999999999
 21
10.0
 31
0.0
  0
LINE
  5
78D4
330
78B3
100
AcDbEntity
  8
0
100
AcDbLine
 10
31.99999999999999
 20
42.99999999999998
 30
0.0
 11
30.0
 21
42.99999999999998
 31
0.0
  0
LINE
  5
78D5
330
78B3
100
AcDbEntity
  8
0
100
AcDbLine
 10
30.0
 20
42.99999999999998
 30
0.0
 11
30.0
 21
120.0
 31
0.0
  0
LINE
  5
78D6
330
78B3
100
AcDbEntity
  8
0
100
AcDbLine
 10
31.99999999999999
 20
120.0
 30
0.0
 11
31.99999999999999
 21
42.99999999999998
 31
0.0
  0
LINE
  5
78D7
330
78B3
100
AcDbEntity
  8
0
100
AcDbLine
 10
30.0
 20
120.0
 30
0.0
 11
31.99999999999999
 21
120.0
 31
0.0
  0
LINE
  5
78D8
330
78B3
100
AcDbEntity
  8
0
100
AcDbLine
 10
31.99999999999999
 20
10.0
 30
0.0
 11
31.99999999999999
 21
2.0
 31
0.0
  0
LINE
  5
78D9
330
78B3
100
AcDbEntity
  8
0
100
AcDbLine
 10
29.99999999999998
 20
2.0
 30
0.0
 11
29.99999999999998
 21
10.0
 31
0.0
  0
ARC
  5
78DA
330
78B3
100
AcDbEntity
  8
0
100
AcDbCircle
 10
27.99999999999999
 20
2.0
 30
0.0
 40
2.000000000000001
100
AcDbArc
 50
270.0
 51
0.0
  0
LINE
  5
78DB
330
78B3
100
AcDbEntity
  8
0
100
AcDbLine
 10
33.99999999999999
 20
120.0
 30
0.0
 11
32.0
 21
120.0
 31
0.0
  0
LINE
  5
78DC
330
78B3
100
AcDbEntity
  8
0
100
AcDbLine
 10
71.50000000000005
 20
42.99999999999998
 30
0.0
 11
71.5
 21
120.0
 31
0.0
  0
LINE
  5
78DD
330
78B3
100
AcDbEntity
  8
0
100
AcDbLine
 10
71.5
 20
120.0
 30
0.0
 11
33.99999999999999
 21
120.0
 31
0.0
  0
CIRCLE
  5
78DE
330
78B3
100
AcDbEntity
  8
0
100
AcDbCircle
 10
52.0
 20
100.0
 30
0.0
 40
6.5
  0
CIRCLE
  5
78DF
330
78B3
100
AcDbEntity
  8
0
100
AcDbCircle
 10
63.0
 20
105.0
 30
0.0
 40
2.5
  0
LINE
  5
78E0
330
78B3
100
AcDbEntity
  8
0
100
AcDbLine
 10
-71.50000000000005
 20
42.99999999999998
 30
0.0
 11
-34.60606060606064
 21
12.56249999999998
 31
0.0
  0
LINE
  5
78E1
330
78B3
100
AcDbEntity
  8
0
100
AcDbLine
 10
-30.0
 20
42.99999999999998
 30
0.0
 11
-29.99999999999998
 21
10.0
 31
0.0
  0
LINE
  5
78E2
330
78B3
100
AcDbEntity
  8
0
100
AcDbLine
 10
-31.99999999999999
 20
42.99999999999998
 30
0.0
 11
-30.0
 21
42.99999999999998
 31
0.0
  0
LINE
  5
78E3
330
78B3
100
AcDbEntity
  8
0
100
AcDbLine
 10
-31.99999999999999
 20
10.0
 30
0.0
 11
-31.99999999999999
 21
42.99999999999998
 31
0.0
  0
LINE
  5
78E4
330
78B3
100
AcDbEntity
  8
0
100
AcDbLine
 10
-29.99999999999998
 20
10.0
 30
0.0
 11
-31.99999999999999
 21
10.0
 31
0.0
  0
LINE
  5
78E5
330
78B3
100
AcDbEntity
  8
0
100
AcDbLine
 10
-30.0
 20
120.0
 30
0.0
 11
-30.0
 21
42.99999999999998
 31
0.0
  0
LINE
  5
78E6
330
78B3
100
AcDbEntity
  8
0
100
AcDbLine
 10
-31.99999999999999
 20
120.0
 30
0.0
 11
-30.0
 21
120.0
 31
0.0
  0
LINE
  5
78E7
330
78B3
100
AcDbEntity
  8
0
100
AcDbLine
 10
-31.99999999999999
 20
42.99999999999998
 30
0.0
 11
-31.99999999999999
 21
120.0
 31
0.0
  0
CIRCLE
  5
78E8
330
78B3
100
AcDbEntity
  8
0
100
AcDbCircle
 10
-52.0
 20
50.0
 30
0.0
 40
6.5
  0
CIRCLE
  5
78E9
330
78B3
100
AcDbEntity
  8
0
100
AcDbCircle
 10
52.0
 20
50.0
 30
0.0
 40
6.5
  0
CIRCLE
  5
78EA
330
78B3
100
AcDbEntity
  8
0
100
AcDbCircle
 10
-52.0
 20
100.0
 30
0.0
 40
6.5
  0
CIRCLE
  5
78EB
330
78B3
100
AcDbEntity
  8
0
100
AcDbCircle
 10
-41.0
 20
35.0
 30
0.0
 40
2.5
  0
CIRCLE
  5
78EC
330
78B3
100
AcDbEntity
  8
0
100
AcDbCircle
 10
-41.0
 20
55.0
 30
0.0
 40
2.5
  0
CIRCLE
  5
78ED
330
78B3
100
AcDbEntity
  8
0
100
AcDbCircle
 10
-41.0
 20
75.0
 30
0.0
 40
2.5
  0
CIRCLE
  5
78EE
330
78B3
100
AcDbEntity
  8
0
100
AcDbCircle
 10
-41.0
 20
95.0
 30
0.0
 40
2.5
  0
CIRCLE
  5
78EF
330
78B3
100
AcDbEntity
  8
0
100
AcDbCircle
 10
41.0
 20
35.0
 30
0.0
 40
2.5
  0
CIRCLE
  5
78F0
330
78B3
100
AcDbEntity
  8
0
100
AcDbCircle
 10
41.0
 20
55.0
 30
0.0
 40
2.5
  0
CIRCLE
  5
78F1
330
78B3
100
AcDbEntity
  8
0
100
AcDbCircle
 10
41.0
 20
75.0
 30
0.0
 40
2.5
  0
CIRCLE
  5
78F2
330
78B3
100
AcDbEntity
  8
0
100
AcDbCircle
 10
41.0
 20
95.0
 30
0.0
 40
2.5
  0
CIRCLE
  5
78F3
330
78B3
100
AcDbEntity
  8
0
100
AcDbCircle
 10
-41.0
 20
115.0
 30
0.0
 40
2.5
  0
CIRCLE
  5
78F4
330
78B3
100
AcDbEntity
  8
0
100
AcDbCircle
 10
41.0
 20
115.0
 30
0.0
 40
2.5
  0
CIRCLE
  5
78F5
330
78B3
100
AcDbEntity
  8
0
100
AcDbCircle
 10
-63.0
 20
45.0
 30
0.0
 40
2.5
  0
CIRCLE
  5
78F6
330
78B3
100
AcDbEntity
  8
0
100
AcDbCircle
 10
-63.0
 20
65.0
 30
0.0
 40
2.5
  0
CIRCLE
  5
78F7
330
78B3
100
AcDbEntity
  8
0
100
AcDbCircle
 10
-63.0
 20
85.0
 30
0.0
 40
2.5
  0
CIRCLE
  5
78F8
330
78B3
100
AcDbEntity
  8
0
100
AcDbCircle
 10
63.0
 20
45.0
 30
0.0
 40
2.5
  0
CIRCLE
  5
78F9
330
78B3
100
AcDbEntity
  8
0
100
AcDbCircle
 10
63.0
 20
65.0
 30
0.0
 40
2.5
  0
CIRCLE
  5
78FA
330
78B3
100
AcDbEntity
  8
0
100
AcDbCircle
 10
63.0
 20
85.0
 30
0.0
 40
2.5
  0
CIRCLE
  5
78FB
330
78B3
100
AcDbEntity
  8
0
100
AcDbCircle
 10
-63.0
 20
105.0
 30
0.0
 40
2.5
  0
LINE
  5
78FC
330
78B3
100
AcDbEntity
  8
0
100
AcDbLine
 10
-71.5
 20
120.0
 30
0.0
 11
-33.99999999999999
 21
120.0
 31
0.0
  0
LINE
  5
78FD
330
78B3
100
AcDbEntity
  8
0
100
AcDbLine
 10
-71.50000000000005
 20
42.99999999999998
 30
0.0
 11
-71.5
 21
120.0
 31
0.0
  0
LINE
  5
78FE
330
78B3
100
AcDbEntity
  8
0
100
AcDbLine
 10
-29.99999999999998
 20
2.0
 30
0.0
 11
-29.99999999999998
 21
10.0
 31
0.0
  0
LINE
  5
78FF
330
78B3
100
AcDbEntity
  8
0
100
AcDbLine
 10
-31.99999999999999
 20
10.0
 30
0.0
 11
-31.99999999999999
 21
2.0
 31
0.0
  0
LINE
  5
7900
330
78B3
100
AcDbEntity
  8
0
100
AcDbLine
 10
-33.99999999999999
 20
120.0
 30
0.0
 11
-32.0
 21
120.0
 31
0.0
  0
ENDBLK
  5
78B5
330
78B3
100
AcDbEntity
  8
0
100
AcDbBlockEnd
  0
BLOCK
  5
7902
330
7901
100
AcDbEntity
  8
0
100
AcDbBlockBegin
  2
SAE300_60_2-Left
 70
     0
 10
0.0
 20
0.0
 30
0.0
  3
SAE300_60_2-Left
  1

  0
LINE
  5
7904
330
7901
100
AcDbEntity
  8
0
100
AcDbLine
 10
2.000000000000005
 20
-2.0
 30
0.0
 11
86.00000000000001
 21
-2.000000000000003
 31
0.0
  0
LINE
  5
7905
330
7901
100
AcDbEntity
  8
0
100
AcDbLine
 10
2.000000000000012
 20
2.000000000000004
 30
0.0
 11
2.000000000000005
 21
-1.999999999999999
 31
0.0
  0
LINE
  5
7906
330
7901
100
AcDbEntity
  8
0
100
AcDbLine
 10
86.00000000000001
 20
-2.000000000000003
 30
0.0
 11
86.00000000000001
 21
2.0
 31
0.0
  0
SPLINE
  5
7907
330
7901
100
AcDbEntity
  8
0
100
AcDbSpline
210
0.0
220
0.0
230
1.0
 70
     8
 71
     3
 72
    14
 73
    10
 74
     0
 42
0.000000001
 43
0.0000000001
 40
-0.4813026532933744
 40
-0.4813026532933744
 40
-0.4813026532933744
 40
-0.4813026532933744
 40
-0.3760960081002731
 40
-0.3760960081002731
 40
-0.3760960081002731
 40
-0.0765284972677348
 40
-0.0765284972677348
 40
-0.0765284972677348
 40
0.0
 40
0.0
 40
0.0
 40
0.0
 10
0.9454120927328412
 20
11.731760115229
 30
0.0
 10
0.8408297879902576
 20
11.76867618608428
 30
0.0
 10
0.7371129357540499
 20
11.80054090483271
 30
0.0
 10
0.6388614064418202
 20
11.8342366632106
 30
0.0
 10
0.3590980320130272
 20
11.93018264118901
 30
0.0
 10
0.1217220476576046
 20
12.04001612967627
 30
0.0
 10
0.0342615816144994
 20
12.31443386955838
 30
0.0
 10
0.0119186445649735
 20
12.38453752398479
 30
0.0
 10
0.0000045452574096
 20
12.46769665104396
 30
0.0
 10
0.0000000001152103
 20
12.56250000004007
 30
0.0
  0
SPLINE
  5
7908
330
7901
100
AcDbEntity
  8
0
100
AcDbSpline
210
0.0
220
0.0
230
1.0
 70
     8
 71
     3
 72
    14
 73
    10
 74
     0
 42
0.000000001
 43
0.0000000001
 40
0.0
 40
0.0
 40
0.0
 40
0.0
 40
0.3435201403993635
 40
0.3435201403993635
 40
0.3435201403993635
 40
0.7570127568145829
 40
0.7570127568145829
 40
0.7570127568145829
 40
1.0
 40
1.0
 40
1.0
 40
1.0
 10
2.000000000000007
 20
12.56249999999998
 30
0.0
 10
2.000036880620259
 20
12.30248939774791
 30
0.0
 10
1.996834301352092
 20
12.0752862912304
 30
0.0
 10
1.998675474349387
 20
11.84407074683219
 30
0.0
 10
2.000891680476455
 20
11.56575833027945
 30
0.0
 10
2.001068977479043
 20
11.27136389233655
 30
0.0
 10
2.00112317049751
 20
10.85787118800866
 30
0.0
 10
2.001155016802944
 20
10.61488389316172
 30
0.0
 10
2.000250524375134
 20
10.35819391788699
 30
0.0
 10
1.999999999992528
 20
10.00000000165264
 30
0.0
  0
LINE
  5
7909
330
7901
100
AcDbEntity
  8
0
100
AcDbLine
 10
0.0
 20
12.56249999999998
 30
0.0
 11
2.000000000000008
 21
12.56249999999998
 31
0.0
  0
SPLINE
  5
790A
330
7901
100
AcDbEntity
  8
0
100
AcDbSpline
210
0.0
220
0.0
230
1.0
 70
     8
 71
     3
 72
    18
 73
    14
 74
     0
 42
0.000000001
 43
0.0000000001
 40
0.0
 40
0.0
 40
0.0
 40
0.0
 40
0.0048729671370849
 40
0.0048729671370849
 40
0.0070353821194142
 40
0.0070353821194142
 40
0.0087994749871751
 40
0.0087994749871751
 40
0.0102139388696396
 40
0.0102139388696396
 40
0.0113405492795349
 40
0.0113405492795349
 40
0.0120695907487533
 40
0.0120695907487533
 40
0.0120695907487533
 40
0.0120695907487533
 10
1.999551536423699
 20
9.999998570083727
 30
0.0
 10
1.999501455261177
 20
10.0155589316269
 30
0.0
 10
1.999399311237785
 20
10.03064387495172
 30
0.0
 10
1.99920374048802
 20
10.0493439406257
 30
0.0
 10
1.999136854850873
 20
10.05473692732008
 30
0.0
 10
1.99901399869655
 20
10.06343421114499
 30
0.0
 10
1.998957798438408
 20
10.0669746686373
 30
0.0
 10
1.998866163903448
 20
10.07230596051351
 30
0.0
 10
1.99882854063142
 20
10.07432314511384
 30
0.0
 10
1.998775561642816
 20
10.07703972280591
 30
0.0
 10
1.998757115883662
 20
10.07793180565401
 30
0.0
 10
1.998739470221067
 20
10.07876888588218
 30
0.0
 10
1.998735706105182
 20
10.07894058273386
 30
0.0
 10
1.998735706096346
 20
10.07894058313742
 30
0.0
  0
SPLINE
  5
790B
330
7901
100
AcDbEntity
  8
0
100
AcDbSpline
210
0.0
220
0.0
230
1.0
 70
     8
 71
     3
 72
    12
 73
     8
 74
     0
 42
0.000000001
 43
0.0000000001
 40
0.0063239168499194
 40
0.0063239168499194
 40
0.0063239168499194
 40
0.0063239168499194
 40
0.0066536744752774
 40
0.0066536744752774
 40
0.0086398637356723
 40
0.0086398637356723
 40
0.008725346937143
 40
0.008725346937143
 40
0.008725346937143
 40
0.008725346937143
 10
1.999399054355912
 20
10.02857759079134
 30
0.0
 10
1.999392884239321
 20
10.0288412781577
 30
0.0
 10
1.9993870539706
 20
10.02908879963712
 30
0.0
 10
1.999348675825721
 20
10.03070956774304
 30
0.0
 10
1.999329089675387
 20
10.03149445617835
 30
0.0
 10
1.999327499326346
 20
10.03155858687087
 30
0.0
 10
1.999327466375536
 20
10.03155991428606
 30
0.0
 10
1.99932746638965
 20
10.03155991371748
 30
0.0
  0
SPLINE
  5
790C
330
7901
100
AcDbEntity
  8
0
100
AcDbSpline
210
0.0
220
0.0
230
1.0
 70
     8
 71
     3
 72
    32
 73
    28
 74
     0
 42
0.000000001
 43
0.0000000001
 40
0.0045647129621646
 40
0.0045647129621646
 40
0.0045647129621646
 40
0.0045647129621646
 40
0.0070673478702326
 40
0.0070673478702326
 40
0.0097302523622649
 40
0.0097302523622649
 40
0.0113867362516931
 40
0.0113867362516931
 40
0.0131313856237616
 40
0.0131313856237616
 40
0.0155636926465318
 40
0.0155636926465318
 40
0.0212052866309781
 40
0.0212052866309781
 40
0.0381194973884487
 40
0.0381194973884487
 40
0.0891487790464084
 40
0.0891487790464084
 40
0.1164039102925525
 40
0.1164039102925525
 40
0.1533844627595739
 40
0.1533844627595739
 40
0.1869859083984026
 40
0.1869859083984026
 40
0.2293218122352049
 40
0.2293218122352049
 40
0.2446904102940976
 40
0.2446904102940976
 40
0.2446904102940976
 40
0.2446904102940976
 10
1.99943600801288
 20
10.02343351940854
 30
0.0
 10
1.999332404454128
 20
10.02730053134293
 30
0.0
 10
1.999227682539244
 20
10.03099629528486
 30
0.0
 10
1.998981968468461
 20
10.03919370934448
 30
0.0
 10
1.998837961924793
 20
10.04380822131105
 30
0.0
 10
1.998501723915895
 20
10.05367272505943
 30
0.0
 10
1.998344226475291
 20
10.05811386851197
 30
0.0
 10
1.997972214968423
 20
10.06798627055701
 30
0.0
 10
1.997753619566628
 20
10.07349135455722
 30
0.0
 10
1.997190397653492
 20
10.08684376402897
 30
0.0
 10
1.996826631601194
 20
10.09485280977475
 30
0.0
 10
1.99552562770446
 20
10.12144433173175
 30
0.0
 10
1.994458470412704
 20
10.14020064524366
 30
0.0
 10
1.989568500812112
 20
10.2149970149213
 30
0.0
 10
1.984487834675546
 20
10.27097240771331
 30
0.0
 10
1.957792707709288
 20
10.49421326370955
 30
0.0
 10
1.923086045113586
 20
10.66276590935629
 30
0.0
 10
1.83650251526736
 20
10.90877550919965
 30
0.0
 10
1.799737007069083
 20
10.99265579274242
 30
0.0
 10
1.698972348277032
 20
11.17634306771138
 30
0.0
 10
1.628286277749994
 20
11.27300412870791
 30
0.0
 10
1.483812339736285
 20
11.42613744293603
 30
0.0
 10
1.409906180128689
 20
11.48742821954283
 30
0.0
 10
1.242075420839795
 20
11.60219931392564
 30
0.0
 10
1.146011121186613
 20
11.65141387904257
 30
0.0
 10
1.013499388010828
 20
11.70647216544807
 30
0.0
 10
0.9779701921134991
 20
11.71998389198708
 30
0.0
 10
0.9420912521045098
 20
11.73259712964672
 30
0.0
  0
LINE
  5
790D
330
7901
100
AcDbEntity
  8
0
100
AcDbLine
 10
2.000000000000012
 20
2.000000000000003
 30
0.0
 11
2.000000000000012
 21
10.0
 31
0.0
  0
LINE
  5
790E
330
7901
100
AcDbEntity
  8
0
100
AcDbLine
 10
1.999999999999992
 20
42.99999999999998
 30
0.0
 11
2.000000000000008
 21
12.56249999999998
 31
0.0
  0
LINE
  5
790F
330
7901
100
AcDbEntity
  8
0
100
AcDbLine
 10
0.0
 20
42.99999999999998
 30
0.0
 11
1.999999999999992
 21
42.99999999999998
 31
0.0
  0
LINE
  5
7910
330
7901
100
AcDbEntity
  8
0
100
AcDbLine
 10
0.0
 20
12.56249999999998
 30
0.0
 11
0.0
 21
42.99999999999998
 31
0.0
  0
LINE
  5
7911
330
7901
100
AcDbEntity
  8
0
100
AcDbLine
 10
86.00000000000003
 20
10.0
 30
0.0
 11
46.00000000000003
 21
42.99999999999998
 31
0.0
  0
LINE
  5
7912
330
7901
100
AcDbEntity
  8
0
100
AcDbLine
 10
46.00000000000003
 20
42.99999999999998
 30
0.0
 11
46.00000000000001
 21
120.0
 31
0.0
  0
LINE
  5
7913
330
7901
100
AcDbEntity
  8
0
100
AcDbLine
 10
1.999999999999992
 20
42.99999999999998
 30
0.0
 11
2.000000000000006
 21
120.0
 31
0.0
  0
LINE
  5
7914
330
7901
100
AcDbEntity
  8
0
100
AcDbLine
 10
86.00000000000003
 20
10.0
 30
0.0
 11
86.00000000000001
 21
2.0
 31
0.0
  0
LINE
  5
7915
330
7901
100
AcDbEntity
  8
0
100
AcDbLine
 10
4.000000000000003
 20
120.0
 30
0.0
 11
46.00000000000001
 21
120.0
 31
0.0
  0
LINE
  5
7916
330
7901
100
AcDbEntity
  8
0
100
AcDbLine
 10
0.0
 20
120.0
 30
0.0
 11
2.000000000000006
 21
120.0
 31
0.0
  0
LINE
  5
7917
330
7901
100
AcDbEntity
  8
0
100
AcDbLine
 10
0.0
 20
42.99999999999998
 30
0.0
 11
0.0
 21
120.0
 31
0.0
  0
LINE
  5
7918
330
7901
100
AcDbEntity
  8
0
100
AcDbLine
 10
2.000000000000007
 20
120.0
 30
0.0
 11
4.000000000000003
 21
120.0
 31
0.0
  0
CIRCLE
  5
7919
330
7901
100
AcDbEntity
  8
0
100
AcDbCircle
 10
38.50000000000001
 20
34.99999999999996
 30
0.0
 40
2.5
  0
CIRCLE
  5
791A
330
7901
100
AcDbEntity
  8
0
100
AcDbCircle
 10
38.50000000000001
 20
54.99999999999996
 30
0.0
 40
2.5
  0
CIRCLE
  5
791B
330
7901
100
AcDbEntity
  8
0
100
AcDbCircle
 10
38.50000000000001
 20
74.99999999999997
 30
0.0
 40
2.5
  0
CIRCLE
  5
791C
330
7901
100
AcDbEntity
  8
0
100
AcDbCircle
 10
38.50000000000001
 20
94.99999999999998
 30
0.0
 40
2.5
  0
CIRCLE
  5
791D
330
7901
100
AcDbEntity
  8
0
100
AcDbCircle
 10
38.50000000000001
 20
114.9999999999999
 30
0.0
 40
2.5
  0
ENDBLK
  5
7903
330
7901
100
AcDbEntity
  8
0
100
AcDbBlockEnd
  0
BLOCK
  5
791F
330
791E
100
AcDbEntity
  8
0
100
AcDbBlockBegin
  2
SAE300_60_2-Right
 70
     0
 10
0.0
 20
0.0
 30
0.0
  3
SAE300_60_2-Right
  1

  0
SPLINE
  5
7921
330
791E
100
AcDbEntity
  8
0
100
AcDbSpline
210
0.0
220
0.0
230
1.0
 70
     8
 71
     3
 72
    14
 73
    10
 74
     0
 42
0.000000001
 43
0.0000000001
 40
0.0
 40
0.0
 40
0.0
 40
0.0
 40
0.3435201403993635
 40
0.3435201403993635
 40
0.3435201403993635
 40
0.7570127568145829
 40
0.7570127568145829
 40
0.7570127568145829
 40
1.0
 40
1.0
 40
1.0
 40
1.0
 10
-2.000000000000007
 20
12.56249999999998
 30
0.0
 10
-2.000036880620259
 20
12.30248939774791
 30
0.0
 10
-1.996834301352092
 20
12.0752862912304
 30
0.0
 10
-1.998675474349387
 20
11.84407074683219
 30
0.0
 10
-2.000891680476455
 20
11.56575833027945
 30
0.0
 10
-2.001068977479043
 20
11.27136389233655
 30
0.0
 10
-2.00112317049751
 20
10.85787118800866
 30
0.0
 10
-2.001155016802944
 20
10.61488389316172
 30
0.0
 10
-2.000250524375134
 20
10.35819391788699
 30
0.0
 10
-1.999999999992528
 20
10.00000000165264
 30
0.0
  0
SPLINE
  5
7922
330
791E
100
AcDbEntity
  8
0
100
AcDbSpline
210
0.0
220
0.0
230
1.0
 70
     8
 71
     3
 72
    14
 73
    10
 74
     0
 42
0.000000001
 43
0.0000000001
 40
-0.481302653293374
 40
-0.481302653293374
 40
-0.481302653293374
 40
-0.481302653293374
 40
-0.3760960081002731
 40
-0.3760960081002731
 40
-0.3760960081002731
 40
-0.0765284972677348
 40
-0.0765284972677348
 40
-0.0765284972677348
 40
0.0
 40
0.0
 40
0.0
 40
0.0
 10
-0.9454120927328396
 20
11.73176011522901
 30
0.0
 10
-0.8408297879902569
 20
11.76867618608428
 30
0.0
 10
-0.7371129357540493
 20
11.80054090483271
 30
0.0
 10
-0.6388614064418202
 20
11.8342366632106
 30
0.0
 10
-0.3590980320130272
 20
11.93018264118901
 30
0.0
 10
-0.1217220476576046
 20
12.04001612967627
 30
0.0
 10
-0.0342615816144994
 20
12.31443386955838
 30
0.0
 10
-0.0119186445649735
 20
12.38453752398479
 30
0.0
 10
-0.0000045452574096
 20
12.46769665104396
 30
0.0
 10
-0.0000000001152103
 20
12.56250000004007
 30
0.0
  0
LINE
  5
7923
330
791E
100
AcDbEntity
  8
0
100
AcDbLine
 10
-2.000000000000008
 20
12.56249999999998
 30
0.0
 11
0.0
 21
12.56249999999998
 31
0.0
  0
SPLINE
  5
7924
330
791E
100
AcDbEntity
  8
0
100
AcDbSpline
210
0.0
220
0.0
230
1.0
 70
     8
 71
     3
 72
    18
 73
    14
 74
     0
 42
0.000000001
 43
0.0000000001
 40
0.0122744830582555
 40
0.0122744830582555
 40
0.0122744830582555
 40
0.0122744830582555
 40
0.0127922476621087
 40
0.0127922476621087
 40
0.0141039698203609
 40
0.0141039698203609
 40
0.0167552321382796
 40
0.0167552321382796
 40
0.0193828999211143
 40
0.0193828999211143
 40
0.0227949751782889
 40
0.0227949751782889
 40
0.0243496808511893
 40
0.0243496808511893
 40
0.0243496808511893
 40
0.0243496808511893
 10
-1.998735706096282
 20
10.07894058314034
 30
0.0
 10
-1.998735706097018
 20
10.07894058310675
 30
0.0
 10
-1.998737581483035
 20
10.07885499785566
 30
0.0
 10
-1.998750171843704
 20
10.07826494217782
 30
0.0
 10
-1.998770288867239
 20
10.07730702858509
 30
0.0
 10
-1.998852036456192
 20
10.07312427131407
 30
0.0
 10
-1.998935149899278
 20
10.06852994823102
 30
0.0
 10
-1.999099882285765
 20
10.05760342140823
 30
0.0
 10
-1.999183729707137
 20
10.05116828766176
 30
0.0
 10
-1.999352847326283
 20
10.0351935239781
 30
0.0
 10
-1.999433043624997
 20
10.02512813664261
 30
0.0
 10
-1.999514685041851
 20
10.00985788599859
 30
0.0
 10
-1.999535558177737
 20
10.00496305715761
 30
0.0
 10
-1.999551536423699
 20
9.99999857008372
 30
0.0
  0
SPLINE
  5
7925
330
791E
100
AcDbEntity
  8
0
100
AcDbSpline
210
0.0
220
0.0
230
1.0
 70
     8
 71
     3
 72
    10
 73
     6
 74
     0
 42
0.000000001
 43
0.0000000001
 40
0.0086744412336508
 40
0.0086744412336508
 40
0.0086744412336508
 40
0.0086744412336508
 40
0.0108228418722247
 40
0.0108228418722247
 40
0.0110653810394848
 40
0.0110653810394848
 40
0.0110653810394848
 40
0.0110653810394848
 10
-1.999327466389526
 20
10.03155991372242
 30
0.0
 10
-1.999327466386137
 20
10.03155991385902
 30
0.0
 10
-1.99934897512421
 20
10.03070111134344
 30
0.0
 10
-1.999389896284495
 20
10.02896801302849
 30
0.0
 10
-1.999394241633632
 20
10.02878323015803
 30
0.0
 10
-1.999398770914088
 20
10.02858970286269
 30
0.0
  0
SPLINE
  5
7926
330
791E
100
AcDbEntity
  8
0
100
AcDbSpline
210
0.0
220
0.0
230
1.0
 70
     8
 71
     3
 72
    28
 73
    24
 74
     0
 42
0.000000001
 43
0.0000000001
 40
0.0
 40
0.0
 40
0.0
 40
0.0
 40
0.0650016965077491
 40
0.0650016965077491
 40
0.1023228294616663
 40
0.1023228294616663
 40
0.1414747326735533
 40
0.1414747326735533
 40
0.1748987385483256
 40
0.1748987385483256
 40
0.2169224706825666
 40
0.2169224706825666
 40
0.2285442986863314
 40
0.2285442986863314
 40
0.2315623594457064
 40
0.2315623594457064
 40
0.233185070940995
 40
0.233185070940995
 40
0.2348181576225128
 40
0.2348181576225128
 40
0.238101286327621
 40
0.238101286327621
 40
0.2399160756003712
 40
0.2399160756003712
 40
0.2399160756003712
 40
0.2399160756003712
 10
-0.9420912521045043
 20
11.73259712964672
 30
0.0
 10
-1.093841721506272
 20
11.67924926777992
 30
0.0
 10
-1.242353898714986
 20
11.60988799343303
 30
0.0
 10
-1.46645177099835
 20
11.44171617372244
 30
0.0
 10
-1.547407943194704
 20
11.36594146111105
 30
0.0
 10
-1.695446554658357
 20
11.18241413825453
 30
0.0
 10
-1.763061289549106
 20
11.07040741116191
 30
0.0
 10
-1.860492149634384
 20
10.85077461309077
 30
0.0
 10
-1.895809632777656
 20
10.74321521028278
 30
0.0
 10
-1.955909904599478
 20
10.49957396119494
 30
0.0
 10
-1.976604789861491
 20
10.36178356809472
 30
0.0
 10
-1.991708370868359
 20
10.18431953876747
 30
0.0
 10
-1.994292669594306
 20
10.14560066218855
 30
0.0
 10
-1.996716769270594
 20
10.09729830253326
 30
0.0
 10
-1.997174215886934
 20
10.08730858607564
 30
0.0
 10
-1.997791800470045
 20
10.07253295720152
 30
0.0
 10
-1.997992861249194
 20
10.06744441343121
 30
0.0
 10
-1.998347803048816
 20
10.05801262831999
 30
0.0
 10
-1.998502718509508
 20
10.05364289552387
 30
0.0
 10
-1.998885696674177
 20
10.04240908759818
 30
0.0
 10
-1.999047032941031
 20
10.03711941522043
 30
0.0
 10
-1.999275993867166
 20
10.02927101840715
 30
0.0
 10
-1.999356886193052
 20
10.02637473922748
 30
0.0
 10
-1.999436029917565
 20
10.02341154908919
 30
0.0
  0
LINE
  5
7927
330
791E
100
AcDbEntity
  8
0
100
AcDbLine
 10
-2.000000000000005
 20
-2.0
 30
0.0
 11
-86.00000000000001
 21
-2.0
 31
0.0
  0
LINE
  5
7928
330
791E
100
AcDbEntity
  8
0
100
AcDbLine
 10
-2.000000000000012
 20
2.000000000000003
 30
0.0
 11
-2.000000000000012
 21
10.0
 31
0.0
  0
LINE
  5
7929
330
791E
100
AcDbEntity
  8
0
100
AcDbLine
 10
-2.000000000000012
 20
2.000000000000004
 30
0.0
 11
-2.000000000000005
 21
-1.999999999999999
 31
0.0
  0
LINE
  5
792A
330
791E
100
AcDbEntity
  8
0
100
AcDbLine
 10
-86.00000000000001
 20
-2.000000000000003
 30
0.0
 11
-86.00000000000001
 21
2.0
 31
0.0
  0
LINE
  5
792B
330
791E
100
AcDbEntity
  8
0
100
AcDbLine
 10
0.0
 20
42.99999999999998
 30
0.0
 11
0.0
 21
12.56249999999998
 31
0.0
  0
LINE
  5
792C
330
791E
100
AcDbEntity
  8
0
100
AcDbLine
 10
-1.999999999999992
 20
42.99999999999998
 30
0.0
 11
0.0
 21
42.99999999999998
 31
0.0
  0
LINE
  5
792D
330
791E
100
AcDbEntity
  8
0
100
AcDbLine
 10
-2.000000000000008
 20
12.56249999999998
 30
0.0
 11
-1.999999999999992
 21
42.99999999999998
 31
0.0
  0
LINE
  5
792E
330
791E
100
AcDbEntity
  8
0
100
AcDbLine
 10
0.0
 20
42.99999999999998
 30
0.0
 11
0.0
 21
120.0
 31
0.0
  0
CIRCLE
  5
792F
330
791E
100
AcDbEntity
  8
0
100
AcDbCircle
 10
-38.50000000000002
 20
105.0
 30
0.0
 40
2.5
  0
LINE
  5
7930
330
791E
100
AcDbEntity
  8
0
100
AcDbLine
 10
-46.00000000000003
 20
42.99999999999998
 30
0.0
 11
-86.00000000000003
 21
10.0
 31
0.0
  0
LINE
  5
7931
330
791E
100
AcDbEntity
  8
0
100
AcDbLine
 10
-46.00000000000001
 20
120.0
 30
0.0
 11
-46.00000000000003
 21
42.99999999999998
 31
0.0
  0
LINE
  5
7932
330
791E
100
AcDbEntity
  8
0
100
AcDbLine
 10
-86.00000000000003
 20
10.0
 30
0.0
 11
-86.00000000000001
 21
2.0
 31
0.0
  0
LINE
  5
7933
330
791E
100
AcDbEntity
  8
0
100
AcDbLine
 10
-4.000000000000003
 20
120.0
 30
0.0
 11
-46.00000000000001
 21
120.0
 31
0.0
  0
LINE
  5
7934
330
791E
100
AcDbEntity
  8
0
100
AcDbLine
 10
-2.000000000000007
 20
120.0
 30
0.0
 11
-4.000000000000003
 21
120.0
 31
0.0
  0
LINE
  5
7935
330
791E
100
AcDbEntity
  8
0
100
AcDbLine
 10
0.0
 20
120.0
 30
0.0
 11
-2.000000000000006
 21
120.0
 31
0.0
  0
LINE
  5
7936
330
791E
100
AcDbEntity
  8
0
100
AcDbLine
 10
-1.999999999999992
 20
42.99999999999998
 30
0.0
 11
-2.000000000000006
 21
120.0
 31
0.0
  0
CIRCLE
  5
7937
330
791E
100
AcDbEntity
  8
0
100
AcDbCircle
 10
-38.50000000000002
 20
24.99999999999998
 30
0.0
 40
2.5
  0
CIRCLE
  5
7938
330
791E
100
AcDbEntity
  8
0
100
AcDbCircle
 10
-38.50000000000002
 20
44.99999999999999
 30
0.0
 40
2.5
  0
CIRCLE
  5
7939
330
791E
100
AcDbEntity
  8
0
100
AcDbCircle
 10
-38.50000000000002
 20
64.99999999999999
 30
0.0
 40
2.5
  0
CIRCLE
  5
793A
330
791E
100
AcDbEntity
  8
0
100
AcDbCircle
 10
-38.50000000000002
 20
84.99999999999998
 30
0.0
 40
2.5
  0
ENDBLK
  5
7920
330
791E
100
AcDbEntity
  8
0
100
AcDbBlockEnd
  0
BLOCK
  5
793C
330
793B
100
AcDbEntity
  8
0
100
AcDbBlockBegin
  2
SAE300_60_2-Top
 70
     0
 10
0.0
 20
0.0
 30
0.0
  3
SAE300_60_2-Top
  1

  0
LINE
  5
793E
330
793B
100
AcDbEntity
  8
0
100
AcDbLine
 10
30.00000000000002
 20
-2.000000000000008
 30
0.0
 11
30.00000000000002
 21
-2.069004766159128
 31
0.0
  0
SPLINE
  5
793F
330
793B
100
AcDbEntity
  8
0
100
AcDbSpline
210
0.0
220
0.0
230
1.0
 70
     8
 71
     3
 72
    11
 73
     7
 74
     0
 42
0.000000001
 43
0.0000000001
 40
-1.0
 40
-1.0
 40
-1.0
 40
-1.0
 40
-0.7994286890727322
 40
-0.7994286890727322
 40
-0.7994286890727322
 40
-0.6533573777220547
 40
-0.6533573777220547
 40
-0.6533573777220547
 40
-0.6533573777220547
 10
30.00000000000002
 20
-2.000000000000031
 30
0.0
 10
29.99999961270333
 20
-1.999093543231381
 30
0.0
 10
30.12633150600671
 20
-1.919863896634118
 30
0.0
 10
30.33607694563715
 20
-1.790687786202108
 30
0.0
 10
30.48882955654149
 20
-1.696611899881427
 30
0.0
 10
30.68837056420588
 20
-1.577391377850864
 30
0.0
 10
30.91982716790673
 20
-1.445337717162704
 30
0.0
  0
SPLINE
  5
7940
330
793B
100
AcDbEntity
  8
0
100
AcDbSpline
210
0.0
220
0.0
230
1.0
 70
     8
 71
     3
 72
    22
 73
    18
 74
     0
 42
0.000000001
 43
0.0000000001
 40
0.0
 40
0.0
 40
0.0
 40
0.0
 40
0.0062834381584391
 40
0.0062834381584391
 40
0.0147058050034989
 40
0.0147058050034989
 40
0.0373755794330052
 40
0.0373755794330052
 40
0.0501947864155439
 40
0.0501947864155439
 40
0.0667274351950127
 40
0.0667274351950127
 40
0.0745951079520175
 40
0.0745951079520175
 40
0.0808821789010163
 40
0.0808821789010163
 40
0.0850548433268747
 40
0.0850548433268747
 40
0.0850548433268747
 40
0.0850548433268747
 10
34.56214430294234
 20
-2.000020290751285
 30
0.0
 10
34.54700960596249
 20
-2.000021425462907
 30
0.0
 10
34.52948500196121
 20
-2.00002842579611
 30
0.0
 10
34.48709187806145
 20
-2.000060615576062
 30
0.0
 10
34.46142391786409
 20
-2.00009234561225
 30
0.0
 10
34.36626722146051
 20
-2.000257841536563
 30
0.0
 10
34.29520834469055
 20
-2.000490386304405
 30
0.0
 10
34.18816022244605
 20
-2.000912253182462
 30
0.0
 10
34.15315286443483
 20
-2.001031881989258
 30
0.0
 10
34.0700499890653
 20
-2.001571991469037
 30
0.0
 10
34.01811518854766
 20
-2.00207584342307
 30
0.0
 10
33.93881711706923
 20
-2.003973453445206
 30
0.0
 10
33.91258353147451
 20
-2.00477757817833
 30
0.0
 10
33.865453767744
 20
-2.006716589812656
 30
0.0
 10
33.84430845975494
 20
-2.007765721358877
 30
0.0
 10
33.81018213700533
 20
-2.009824043739005
 30
0.0
 10
33.79667677834075
 20
-2.010739680514278
 30
0.0
 10
33.78400618474508
 20
-2.011697617740232
 30
0.0
  0
SPLINE
  5
7941
330
793B
100
AcDbEntity
  8
0
100
AcDbSpline
210
0.0
220
0.0
230
1.0
 70
     8
 71
     3
 72
     8
 73
     4
 74
     0
 42
0.000000001
 43
0.0000000001
 40
0.0225532180432078
 40
0.0225532180432078
 40
0.0225532180432078
 40
0.0225532180432078
 40
0.0230051577519624
 40
0.0230051577519624
 40
0.0230051577519624
 40
0.0230051577519624
 10
32.00005918732202
 20
-3.997669946805186
 30
0.0
 10
32.00006217923023
 20
-3.99845568709397
 30
0.0
 10
32.00006517818455
 20
-3.999233130123455
 30
0.0
 10
32.00006818291075
 20
-3.999999759443455
 30
0.0
  0
SPLINE
  5
7942
330
793B
100
AcDbEntity
  8
0
100
AcDbSpline
210
0.0
220
0.0
230
1.0
 70
     8
 71
     3
 72
    12
 73
     8
 74
     0
 42
0.000000001
 43
0.0000000001
 40
0.010122530409331
 40
0.010122530409331
 40
0.010122530409331
 40
0.010122530409331
 40
0.0121410342057675
 40
0.0121410342057675
 40
0.0133830848428028
 40
0.0133830848428028
 40
0.0141064632998389
 40
0.0141064632998389
 40
0.0141064632998389
 40
0.0141064632998389
 10
31.99998998734154
 20
-3.998412118027203
 30
0.0
 10
31.99998998734138
 20
-3.998412118002177
 30
0.0
 10
31.9999906885078
 20
-3.998522767352298
 30
0.0
 10
31.99999494971044
 20
-3.999182160672719
 30
0.0
 10
31.99999820801805
 20
-3.999683997020281
 30
0.0
 10
32.00000191628883
 20
-4.000251938843863
 30
0.0
 10
32.00000285308554
 20
-4.000394832336696
 30
0.0
 10
32.00000285306189
 20
-4.000394828729541
 30
0.0
  0
SPLINE
  5
7943
330
793B
100
AcDbEntity
  8
0
100
AcDbSpline
210
0.0
220
0.0
230
1.0
 70
     8
 71
     3
 72
     8
 73
     4
 74
     0
 42
0.000000001
 43
0.0000000001
 40
0.0074009777841838
 40
0.0074009777841838
 40
0.0074009777841838
 40
0.0074009777841838
 40
0.012633864536223
 40
0.012633864536223
 40
0.012633864536223
 40
0.012633864536223
 10
32.00006332208746
 20
-3.994805279655726
 30
0.0
 10
32.00006332193192
 20
-3.994805292071457
 30
0.0
 10
32.00004002206513
 20
-3.996603461812247
 30
0.0
 10
32.00000374734087
 20
-3.999999991075217
 30
0.0
  0
SPLINE
  5
7944
330
793B
100
AcDbEntity
  8
0
100
AcDbSpline
210
0.0
220
0.0
230
1.0
 70
     8
 71
     3
 72
    12
 73
     8
 74
     0
 42
0.000000001
 43
0.0000000001
 40
0.0089798261790507
 40
0.0089798261790507
 40
0.0089798261790507
 40
0.0089798261790507
 40
0.0113546723288759
 40
0.0113546723288759
 40
0.0129079874102248
 40
0.0129079874102248
 40
0.0147902108727961
 40
0.0147902108727961
 40
0.0147902108727961
 40
0.0147902108727961
 10
32.00020088397204
 20
-3.981813493189465
 30
0.0
 10
32.00020088397261
 20
-3.98181349313897
 30
0.0
 10
32.00019109060237
 20
-3.982640323266521
 30
0.0
 10
32.00015844553806
 20
-3.985828371542712
 30
0.0
 10
32.00014128466713
 20
-3.987570787462951
 30
0.0
 10
32.00009779394483
 20
-3.992494486697401
 30
0.0
 10
32.00007004613838
 20
-3.995945492050311
 30
0.0
 10
32.00004324849031
 20
-4.000000284688779
 30
0.0
  0
SPLINE
  5
7945
330
793B
100
AcDbEntity
  8
0
100
AcDbSpline
210
0.0
220
0.0
230
1.0
 70
     8
 71
     3
 72
    12
 73
     8
 74
     0
 42
0.000000001
 43
0.0000000001
 40
0.0633902335711957
 40
0.0633902335711957
 40
0.0633902335711957
 40
0.0633902335711957
 40
0.0668508646186795
 40
0.0668508646186795
 40
0.0731934958860416
 40
0.0731934958860416
 40
0.0741567061892981
 40
0.0741567061892981
 40
0.0741567061892981
 40
0.0741567061892981
 10
32.00192089813565
 20
-3.912418193732565
 30
0.0
 10
32.00167553335523
 20
-3.92025235374015
 30
0.0
 10
32.0014397597313
 20
-3.92841949166336
 30
0.0
 10
32.00082484919626
 20
-3.952312333292173
 30
0.0
 10
32.0004795145432
 20
-3.968846046863307
 30
0.0
 10
32.00016592007725
 20
-3.98848305697253
 30
0.0
 10
32.00012542747359
 20
-3.991142089844987
 30
0.0
 10
32.00008986413128
 20
-3.993579139068771
 30
0.0
  0
SPLINE
  5
7946
330
793B
100
AcDbEntity
  8
0
100
AcDbSpline
210
0.0
220
0.0
230
1.0
 70
     8
 71
     3
 72
    16
 73
    12
 74
     0
 42
0.000000001
 43
0.0000000001
 40
0.0743248497049651
 40
0.0743248497049651
 40
0.0743248497049651
 40
0.0743248497049651
 40
0.0744551820776289
 40
0.0744551820776289
 40
0.0745928320682492
 40
0.0745928320682492
 40
0.0748710341677298
 40
0.0748710341677298
 40
0.0754202650661539
 40
0.0754202650661539
 40
0.0754613321317622
 40
0.0754613321317622
 40
0.0754613321317622
 40
0.0754613321317622
 10
32.00007209549156
 20
-3.994805555229011
 30
0.0
 10
32.00006772590615
 20
-3.995109523725883
 30
0.0
 10
32.00006360798238
 20
-3.995397700634232
 30
0.0
 10
32.00005608275049
 20
-3.995926687231246
 30
0.0
 10
32.00005273455236
 20
-3.996163429229535
 30
0.0
 10
32.00004478602761
 20
-3.996727000994617
 30
0.0
 10
32.00004229189241
 20
-3.996905689761688
 30
0.0
 10
32.00003783921792
 20
-3.997224022520438
 30
0.0
 10
32.0000378966416
 20
-3.99722019265404
 30
0.0
 10
32.00003783815746
 20
-3.997224385588657
 30
0.0
 10
32.00003783627817
 20
-3.997224520325564
 30
0.0
 10
32.00003783627815
 20
-3.997224520327181
 30
0.0
  0
SPLINE
  5
7947
330
793B
100
AcDbEntity
  8
0
100
AcDbSpline
210
0.0
220
0.0
230
1.0
 70
     8
 71
     3
 72
    28
 73
    24
 74
     0
 42
0.000000001
 43
0.0000000001
 40
0.0059924017406667
 40
0.0059924017406667
 40
0.0059924017406667
 40
0.0059924017406667
 40
0.0060018374604799
 40
0.0060018374604799
 40
0.0060343730946954
 40
0.0060343730946954
 40
0.0061001210784526
 40
0.0061001210784526
 40
0.0063665712341196
 40
0.0063665712341196
 40
0.073361245436338
 40
0.073361245436338
 40
0.1461778174002727
 40
0.1461778174002727
 40
0.1822197319316108
 40
0.1822197319316108
 40
0.2005090973890363
 40
0.2005090973890363
 40
0.2098937739305188
 40
0.2098937739305188
 40
0.2150065184155541
 40
0.2150065184155541
 40
0.2204217707626081
 40
0.2204217707626081
 40
0.2204217707626081
 40
0.2204217707626081
 10
29.99996683550279
 20
-3.998262424360751
 30
0.0
 10
29.9999664165462
 20
-3.998238325332645
 30
0.0
 10
29.99996598699286
 20
-3.998213615622143
 30
0.0
 10
29.99996402984721
 20
-3.998101026727992
 30
0.0
 10
29.99996237783941
 20
-3.998005976065846
 30
0.0
 10
29.99995717534058
 20
-3.997706580084577
 30
0.0
 10
29.99995334668623
 20
-3.997486161202639
 30
0.0
 10
29.99993419780907
 20
-3.996383238507538
 30
0.0
 10
29.99991873420314
 20
-3.995490967553524
 30
0.0
 10
29.99618179524718
 20
-3.779497931363373
 30
0.0
 10
29.99444382569955
 20
-3.585309887570833
 30
0.0
 10
29.99316940750299
 20
-3.164116576007836
 30
0.0
 10
29.99375519897011
 20
-2.938044326860503
 30
0.0
 10
29.99572386887611
 20
-2.597038268541838
 30
0.0
 10
29.99651060854298
 20
-2.485243193355219
 30
0.0
 10
29.99791998670478
 20
-2.319629628468002
 30
0.0
 10
29.99852173171785
 20
-2.262940821240059
 30
0.0
 10
29.9992383892677
 20
-2.180972703542195
 30
0.0
 10
29.99942028510927
 20
-2.153992676006522
 30
0.0
 10
29.99955633681087
 20
-2.117588837924993
 30
0.0
 10
29.99957946481491
 20
-2.105610793567248
 30
0.0
 10
29.99959432353262
 20
-2.084188228576902
 30
0.0
 10
29.99958391144251
 20
-2.074632503413056
 30
0.0
 10
29.99957228829784
 20
-2.069004766159128
 30
0.0
  0
SPLINE
  5
7948
330
793B
100
AcDbEntity
  8
0
100
AcDbSpline
210
0.0
220
0.0
230
1.0
 70
     8
 71
     3
 72
    12
 73
     8
 74
     0
 42
0.000000001
 43
0.0000000001
 40
0.0
 40
0.0
 40
0.0
 40
0.0
 40
0.0073680638605248
 40
0.0073680638605248
 40
0.0094714794542273
 40
0.0094714794542273
 40
0.0106892344292542
 40
0.0106892344292542
 40
0.0106892344292542
 40
0.0106892344292542
 10
29.9999605385382
 20
-3.999985503002875
 30
0.0
 10
30.00000120689108
 20
-3.988738678366457
 30
0.0
 10
30.00005705426691
 20
-3.97681739748714
 30
0.0
 10
30.00011475911469
 20
-3.966829073057115
 30
0.0
 10
30.00012596496198
 20
-3.965004429919401
 30
0.0
 10
30.00013624741436
 20
-3.963340749440782
 30
0.0
 10
30.00013843227576
 20
-3.962989239765632
 30
0.0
 10
30.00013843227571
 20
-3.962989239773406
 30
0.0
  0
LINE
  5
7949
330
793B
100
AcDbEntity
  8
0
100
AcDbLine
 10
-30.00000000000002
 20
-2.000000000000008
 30
0.0
 11
-30.00000000000002
 21
-2.069004766158641
 31
0.0
  0
SPLINE
  5
794A
330
793B
100
AcDbEntity
  8
0
100
AcDbSpline
210
0.0
220
0.0
230
1.0
 70
     8
 71
     3
 72
    11
 73
     7
 74
     0
 42
0.000000001
 43
0.0000000001
 40
-1.0
 40
-1.0
 40
-1.0
 40
-1.0
 40
-0.7994286890727322
 40
-0.7994286890727322
 40
-0.7994286890727322
 40
-0.6533573777220547
 40
-0.6533573777220547
 40
-0.6533573777220547
 40
-0.6533573777220547
 10
-30.00000000000002
 20
-2.000000000000031
 30
0.0
 10
-29.99999961270333
 20
-1.999093543231381
 30
0.0
 10
-30.12633150600671
 20
-1.919863896634118
 30
0.0
 10
-30.33607694563715
 20
-1.790687786202108
 30
0.0
 10
-30.48882955654149
 20
-1.696611899881427
 30
0.0
 10
-30.68837056420588
 20
-1.577391377850864
 30
0.0
 10
-30.91982716790673
 20
-1.445337717162704
 30
0.0
  0
SPLINE
  5
794B
330
793B
100
AcDbEntity
  8
0
100
AcDbSpline
210
0.0
220
0.0
230
1.0
 70
     8
 71
     3
 72
    40
 73
    36
 74
     0
 42
0.000000001
 43
0.0000000001
 40
0.0
 40
0.0
 40
0.0
 40
0.0
 40
0.0038040598034435
 40
0.0038040598034435
 40
0.0084789254253783
 40
0.0084789254253783
 40
0.0158054478301738
 40
0.0158054478301738
 40
0.026000033969088
 40
0.026000033969088
 40
0.0495206343979813
 40
0.0495206343979813
 40
0.1201103984456462
 40
0.1201103984456462
 40
0.1773337572097503
 40
0.1773337572097503
 40
0.1996793212065456
 40
0.1996793212065456
 40
0.2080576299516436
 40
0.2080576299516436
 40
0.2111994538062698
 40
0.2111994538062698
 40
0.2135558720147596
 40
0.2135558720147596
 40
0.2139977583418009
 40
0.2139977583418009
 40
0.2143300853847613
 40
0.2143300853847613
 40
0.2143843565413931
 40
0.2143843565413931
 40
0.2144316605678778
 40
0.2144316605678778
 40
0.2144792391035167
 40
0.2144792391035167
 40
0.2144971596478305
 40
0.2144971596478305
 40
0.2144971596478305
 40
0.2144971596478305
 10
-29.99957228829786
 20
-2.069004766158641
 30
0.0
 10
-29.99958045322437
 20
-2.072958090528296
 30
0.0
 10
-29.99958825487939
 20
-2.078881092822271
 30
0.0
 10
-29.99959053786113
 20
-2.09428544515587
 30
0.0
 10
-29.99958182785663
 20
-2.104402911822935
 30
0.0
 10
-29.99951287324375
 20
-2.132562809718718
 30
0.0
 10
-29.99942216624662
 20
-2.152170789699535
 30
0.0
 10
-29.99908018252298
 20
-2.201629641954474
 30
0.0
 10
-29.9987801926585
 20
-2.232656804640934
 30
0.0
 10
-29.99777927584822
 20
-2.335149022902283
 30
0.0
 10
-29.9971632484139
 20
-2.406783097105177
 30
0.0
 10
-29.99498744668681
 20
-2.69596552475417
 30
0.0
 10
-29.99378539073236
 20
-2.921302550737962
 30
0.0
 10
-29.99344334744941
 20
-3.312943753078243
 30
0.0
 10
-29.99387955183716
 20
-3.4835064303081
 30
0.0
 10
-29.9960461098571
 20
-3.724044490856188
 30
0.0
 10
-29.99683120513676
 20
-3.792158760903592
 30
0.0
 10
-29.99816331324927
 20
-3.88656543315048
 30
0.0
 10
-29.99855192431653
 20
-3.912373811836651
 30
0.0
 10
-29.99912013927355
 20
-3.947930086813289
 30
0.0
 10
-29.99927855681626
 20
-3.957633754550571
 30
0.0
 10
-29.99956197420214
 20
-3.974638555910989
 30
0.0
 10
-29.99968506338223
 20
-3.981912973169086
 30
0.0
 10
-29.99983522420899
 20
-3.99065482829695
 30
0.0
 10
-29.99985906986155
 20
-3.992039215638511
 30
0.0
 10
-29.9999015298223
 20
-3.994497294341569
 30
0.0
 10
-29.99992010932712
 20
-3.995570678532016
 30
0.0
 10
-29.99994240122337
 20
-3.996855641453671
 30
0.0
 10
-29.99994555609318
 20
-3.997037430821344
 30
0.0
 10
-29.99995141897823
 20
-3.997375139296704
 30
0.0
 10
-29.99995415573048
 20
-3.997532728630428
 30
0.0
 10
-29.99995943838547
 20
-3.997836827063749
 30
0.0
 10
-29.99996202135865
 20
-3.997985468715206
 30
0.0
 10
-29.99996520048897
 20
-3.998168371733973
 30
0.0
 10
-29.99996603703828
 20
-3.998216495418615
 30
0.0
 10
-29.99996683550312
 20
-3.998262424273333
 30
0.0
  0
SPLINE
  5
794C
330
793B
100
AcDbEntity
  8
0
100
AcDbSpline
210
0.0
220
0.0
230
1.0
 70
     8
 71
     3
 72
    14
 73
    10
 74
     0
 42
0.000000001
 43
0.0000000001
 40
0.0077867807804401
 40
0.0077867807804401
 40
0.0077867807804401
 40
0.0077867807804401
 40
0.0083979032900193
 40
0.0083979032900193
 40
0.0105249654586441
 40
0.0105249654586441
 40
0.0138644922789465
 40
0.0138644922789465
 40
0.018480134679283
 40
0.018480134679283
 40
0.018480134679283
 40
0.018480134679283
 10
-30.00013843227572
 20
-3.962989239773589
 30
0.0
 10
-30.00013843227569
 20
-3.962989239778674
 30
0.0
 10
-30.0001378850662
 20
-3.963077842498739
 30
0.0
 10
-30.00013331027588
 20
-3.963815700281929
 30
0.0
 10
-30.00012394049694
 20
-3.965314845069169
 30
0.0
 10
-30.00009364632284
 20
-3.970424767270092
 30
0.0
 10
-30.00006960355392
 20
-3.974738183065701
 30
0.0
 10
-30.00001543374203
 20
-3.985811780672967
 30
0.0
 10
-29.99998601477966
 20
-3.992940053662776
 30
0.0
 10
-29.9999605385382
 20
-3.999985503002877
 30
0.0
  0
SPLINE
  5
794D
330
793B
100
AcDbEntity
  8
0
100
AcDbSpline
210
0.0
220
0.0
230
1.0
 70
     8
 71
     3
 72
     8
 73
     4
 74
     0
 42
0.000000001
 43
0.0000000001
 40
0.0
 40
0.0
 40
0.0
 40
0.0
 40
0.0004520061849372
 40
0.0004520061849372
 40
0.0004520061849372
 40
0.0004520061849372
 10
-32.00006818308752
 20
-3.999999804543631
 30
0.0
 10
-32.00006517791921
 20
-3.999233062853774
 30
0.0
 10
-32.00006218292493
 20
-3.998454380293806
 30
0.0
 10
-32.00005919128891
 20
-3.997668711487035
 30
0.0
  0
SPLINE
  5
794E
330
793B
100
AcDbEntity
  8
0
100
AcDbSpline
210
0.0
220
0.0
230
1.0
 70
     8
 71
     3
 72
    10
 73
     6
 74
     0
 42
0.000000001
 43
0.0000000001
 40
0.0346071743230852
 40
0.0346071743230852
 40
0.0346071743230852
 40
0.0346071743230852
 40
0.0346561747318533
 40
0.0346561747318533
 40
0.04532771300579
 40
0.04532771300579
 40
0.04532771300579
 40
0.04532771300579
 10
-32.00008995444816
 20
-3.993572650735486
 30
0.0
 10
-32.0000917796157
 20
-3.993447577476363
 30
0.0
 10
-32.00009362498531
 20
-3.993321253398655
 30
0.0
 10
-32.00049666817022
 20
-3.965827390798183
 30
0.0
 10
-32.00116362566578
 20
-3.936894523301584
 30
0.0
 10
-32.00191695803245
 20
-3.912841656835399
 30
0.0
  0
SPLINE
  5
794F
330
793B
100
AcDbEntity
  8
0
100
AcDbSpline
210
0.0
220
0.0
230
1.0
 70
     8
 71
     3
 72
    12
 73
     8
 74
     0
 42
0.000000001
 43
0.0000000001
 40
0.0
 40
0.0
 40
0.0
 40
0.0
 40
0.0023856748771888
 40
0.0023856748771888
 40
0.0047234853787941
 40
0.0047234853787941
 40
0.0058053285349357
 40
0.0058053285349357
 40
0.0058053285349357
 40
0.0058053285349357
 10
-32.00004324878985
 20
-4.000000239365852
 30
0.0
 10
-32.00007721419836
 20
-3.994860888985165
 30
0.0
 10
-32.000112704325
 20
-3.990694969311732
 30
0.0
 10
-32.00016689582361
 20
-3.984895764340638
 30
0.0
 10
-32.00018616639375
 20
-3.983140306475871
 30
0.0
 10
-32.00019894125263
 20
-3.981982318480623
 30
0.0
 10
-32.00020088388759
 20
-3.98181350057666
 30
0.0
 10
-32.00020088397204
 20
-3.981813493188548
 30
0.0
  0
SPLINE
  5
7950
330
793B
100
AcDbEntity
  8
0
100
AcDbSpline
210
0.0
220
0.0
230
1.0
 70
     8
 71
     3
 72
    22
 73
    18
 74
     0
 42
0.000000001
 43
0.0000000001
 40
0.0478424950174821
 40
0.0478424950174821
 40
0.0478424950174821
 40
0.0478424950174821
 40
0.0505206700507253
 40
0.0505206700507253
 40
0.0557907467794986
 40
0.0557907467794986
 40
0.0637354180010252
 40
0.0637354180010252
 40
0.0751923871737463
 40
0.0751923871737463
 40
0.0899440113885923
 40
0.0899440113885923
 40
0.1081757582461186
 40
0.1081757582461186
 40
0.1267677338428563
 40
0.1267677338428563
 40
0.1329166086606442
 40
0.1329166086606442
 40
0.1329166086606442
 40
0.1329166086606442
 10
-33.78400568578253
 20
-2.011697818843686
 30
0.0
 10
-33.7921462408963
 20
-2.011082366953091
 30
0.0
 10
-33.80063456008308
 20
-2.010483191883798
 30
0.0
 10
-33.82613745248735
 20
-2.008810540943517
 30
0.0
 10
-33.84370300474908
 20
-2.00782283635405
 30
0.0
 10
-33.88763450670412
 20
-2.005704464464721
 30
0.0
 10
-33.91435601557383
 20
-2.004731535284449
 30
0.0
 10
-33.97810991907102
 20
-2.002914647765012
 30
0.0
 10
-34.01514729987589
 20
-2.002286943487148
 30
0.0
 10
-34.09512567486413
 20
-2.001329432564328
 30
0.0
 10
-34.13569763742135
 20
-2.001132540017278
 30
0.0
 10
-34.22892435771328
 20
-2.000741918812563
 30
0.0
 10
-34.28733020132063
 20
-2.000505885536767
 30
0.0
 10
-34.40025108417159
 20
-2.000183972768963
 30
0.0
 10
-34.45905078818935
 20
-2.000081116913618
 30
0.0
 10
-34.53023069546276
 20
-2.000028132716407
 30
0.0
 10
-34.54733372395878
 20
-2.000021401162422
 30
0.0
 10
-34.5621443029424
 20
-2.000020290751284
 30
0.0
  0
LINE
  5
7951
330
793B
100
AcDbEntity
  8
0
100
AcDbLine
 10
-30.0
 20
-2.000000000000008
 30
0.0
 11
-28.0
 21
-2.000000000000005
 31
0.0
  0
LINE
  5
7952
330
793B
100
AcDbEntity
  8
0
100
AcDbLine
 10
-30.0
 20
-86.00000000000001
 30
0.0
 11
-27.99999999999999
 21
-86.00000000000001
 31
0.0
  0
LINE
  5
7953
330
793B
100
AcDbEntity
  8
0
100
AcDbLine
 10
28.00000000000001
 20
-2.000000000000005
 30
0.0
 11
-28.00000000000001
 21
-2.000000000000005
 31
0.0
  0
LINE
  5
7954
330
793B
100
AcDbEntity
  8
0
100
AcDbLine
 10
-27.99999999999999
 20
-86.00000000000001
 30
0.0
 11
27.99999999999999
 21
-86.00000000000001
 31
0.0
  0
CIRCLE
  5
7955
330
793B
100
AcDbEntity
  8
0
100
AcDbCircle
 10
0.0
 20
-47.99999999999998
 30
0.0
 40
2.5
  0
CIRCLE
  5
7956
330
793B
100
AcDbEntity
  8
0
100
AcDbCircle
 10
0.0
 20
-67.99999999999998
 30
0.0
 40
2.5
  0
LINE
  5
7957
330
793B
100
AcDbEntity
  8
0
100
AcDbLine
 10
30.0
 20
-2.000000000000008
 30
0.0
 11
28.0
 21
-2.000000000000005
 31
0.0
  0
LINE
  5
7958
330
793B
100
AcDbEntity
  8
0
100
AcDbLine
 10
33.99999999999999
 20
0.0
 30
0.0
 11
71.5
 21
0.0
 31
0.0
  0
ARC
  5
7959
330
793B
100
AcDbEntity
  8
0
100
AcDbCircle
 10
34.0
 20
-4.000000000000004
 30
0.0
 40
3.999999999999999
100
AcDbArc
 50
90.00000000000012
 51
180.0
  0
LINE
  5
795A
330
793B
100
AcDbEntity
  8
0
100
AcDbLine
 10
29.99999999999998
 20
-86.00000000000003
 30
0.0
 11
30.0
 21
-46.00000000000003
 31
0.0
  0
LINE
  5
795B
330
793B
100
AcDbEntity
  8
0
100
AcDbLine
 10
31.99999999999999
 20
-86.00000000000003
 30
0.0
 11
29.99999999999998
 21
-86.00000000000003
 31
0.0
  0
LINE
  5
795C
330
793B
100
AcDbEntity
  8
0
100
AcDbLine
 10
31.99999999999999
 20
-46.00000000000003
 30
0.0
 11
31.99999999999999
 21
-86.00000000000003
 31
0.0
  0
LINE
  5
795D
330
793B
100
AcDbEntity
  8
0
100
AcDbLine
 10
30.0
 20
-46.00000000000001
 30
0.0
 11
31.99999999999999
 21
-46.00000000000001
 31
0.0
  0
LINE
  5
795E
330
793B
100
AcDbEntity
  8
0
100
AcDbLine
 10
32.0
 20
-4.000000000000003
 30
0.0
 11
31.99999999999999
 21
-46.00000000000001
 31
0.0
  0
LINE
  5
795F
330
793B
100
AcDbEntity
  8
0
100
AcDbLine
 10
30.0
 20
-46.00000000000001
 30
0.0
 11
30.0
 21
-4.000000000000003
 31
0.0
  0
LINE
  5
7960
330
793B
100
AcDbEntity
  8
0
100
AcDbLine
 10
30.0
 20
-86.00000000000001
 30
0.0
 11
27.99999999999999
 21
-86.00000000000001
 31
0.0
  0
ARC
  5
7961
330
793B
100
AcDbEntity
  8
0
100
AcDbCircle
 10
34.0
 20
-4.000000000000004
 30
0.0
 40
1.999999999999997
100
AcDbArc
 50
90.00000000000026
 51
180.0
  0
LINE
  5
7962
330
793B
100
AcDbEntity
  8
0
100
AcDbLine
 10
71.5
 20
0.0
 30
0.0
 11
71.5
 21
-2.000000000000006
 31
0.0
  0
LINE
  5
7963
330
793B
100
AcDbEntity
  8
0
100
AcDbLine
 10
71.5
 20
-2.000000000000006
 30
0.0
 11
33.99999999999999
 21
-2.000000000000006
 31
0.0
  0
LINE
  5
7964
330
793B
100
AcDbEntity
  8
0
100
AcDbLine
 10
-71.5
 20
-2.000000000000006
 30
0.0
 11
-33.99999999999999
 21
-2.000000000000006
 31
0.0
  0
LINE
  5
7965
330
793B
100
AcDbEntity
  8
0
100
AcDbLine
 10
-30.0
 20
-46.00000000000001
 30
0.0
 11
-30.0
 21
-4.000000000000003
 31
0.0
  0
LINE
  5
7966
330
793B
100
AcDbEntity
  8
0
100
AcDbLine
 10
-32.0
 20
-4.000000000000003
 30
0.0
 11
-31.99999999999999
 21
-46.00000000000001
 31
0.0
  0
LINE
  5
7967
330
793B
100
AcDbEntity
  8
0
100
AcDbLine
 10
-33.99999999999999
 20
0.0
 30
0.0
 11
-71.5
 21
0.0
 31
0.0
  0
LINE
  5
7968
330
793B
100
AcDbEntity
  8
0
100
AcDbLine
 10
-71.5
 20
0.0
 30
0.0
 11
-71.5
 21
-2.000000000000006
 31
0.0
  0
ARC
  5
7969
330
793B
100
AcDbEntity
  8
0
100
AcDbCircle
 10
-34.0
 20
-4.000000000000004
 30
0.0
 40
1.999999999999997
100
AcDbArc
 50
0.0
 51
89.99999999999975
  0
ARC
  5
796A
330
793B
100
AcDbEntity
  8
0
100
AcDbCircle
 10
-34.0
 20
-4.000000000000004
 30
0.0
 40
3.999999999999999
100
AcDbArc
 50
0.0
 51
89.99999999999987
  0
LINE
  5
796B
330
793B
100
AcDbEntity
  8
0
100
AcDbLine
 10
-30.0
 20
-46.00000000000003
 30
0.0
 11
-29.99999999999998
 21
-86.00000000000003
 31
0.0
  0
LINE
  5
796C
330
793B
100
AcDbEntity
  8
0
100
AcDbLine
 10
-31.99999999999999
 20
-86.00000000000003
 30
0.0
 11
-31.99999999999999
 21
-46.00000000000003
 31
0.0
  0
LINE
  5
796D
330
793B
100
AcDbEntity
  8
0
100
AcDbLine
 10
-29.99999999999998
 20
-86.00000000000003
 30
0.0
 11
-31.99999999999999
 21
-86.00000000000003
 31
0.0
  0
LINE
  5
796E
330
793B
100
AcDbEntity
  8
0
100
AcDbLine
 10
-31.99999999999999
 20
-46.00000000000001
 30
0.0
 11
-30.0
 21
-46.00000000000001
 31
0.0
  0
ENDBLK
  5
793D
330
793B
100
AcDbEntity
  8
0
100
AcDbBlockEnd
  0
BLOCK
  5
7970
330
796F
100
AcDbEntity
  8
0
100
AcDbBlockBegin
  2
SAE300_60_2-Bottom
 70
     0
 10
0.0
 20
0.0
 30
0.0
  3
SAE300_60_2-Bottom
  1

  0
SPLINE
  5
7972
330
796F
100
AcDbEntity
  8
0
100
AcDbSpline
210
0.0
220
0.0
230
1.0
 70
     8
 71
     3
 72
    14
 73
    10
 74
     0
 42
0.000000001
 43
0.0000000001
 40
0.0
 40
0.0
 40
0.0
 40
0.0
 40
0.3435201403993635
 40
0.3435201403993635
 40
0.3435201403993635
 40
0.7570127568145829
 40
0.7570127568145829
 40
0.7570127568145829
 40
1.0
 40
1.0
 40
1.0
 40
1.0
 10
34.60606060606063
 20
2.000000000000007
 30
0.0
 10
34.28489935603197
 20
2.000036880620259
 30
0.0
 10
33.87245051750061
 20
1.996834301352092
 30
0.0
 10
33.47645515515054
 20
1.998675474349387
 30
0.0
 10
32.99979850766529
 20
2.000891680476455
 30
0.0
 10
32.53725634321003
 20
2.001068977479043
 30
0.0
 10
32.26239324894931
 20
2.00112317049751
 30
0.0
 10
32.10087107690462
 20
2.001155016802944
 30
0.0
 10
31.99999576744408
 20
2.000250524375134
 30
0.0
 10
31.9999999994884
 20
1.999999999992528
 30
0.0
  0
LINE
  5
7973
330
796F
100
AcDbEntity
  8
0
100
AcDbLine
 10
34.00221802216267
 20
2.000000000000008
 30
0.0
 11
34.00614404866483
 21
2.000000000000008
 31
0.0
  0
LINE
  5
7974
330
796F
100
AcDbEntity
  8
0
100
AcDbLine
 10
34.56214430294233
 20
2.000000000000008
 30
0.0
 11
34.60606060606064
 21
2.000000000000008
 31
0.0
  0
ARC
  5
7975
330
796F
100
AcDbEntity
  8
0
100
AcDbCircle
 10
34.0
 20
4.000000000000004
 30
0.0
 40
1.999999999999996
100
AcDbArc
 50
182.3635574754221
 51
263.7599709139792
  0
ARC
  5
7976
330
796F
100
AcDbEntity
  8
0
100
AcDbCircle
 10
34.0
 20
4.000000000000004
 30
0.0
 40
3.999999999999998
100
AcDbArc
 50
219.6927749101264
 51
270.0
  0
LINE
  5
7977
330
796F
100
AcDbEntity
  8
0
100
AcDbLine
 10
34.60606060606064
 20
0.0
 30
0.0
 11
34.0
 21
0.0
 31
0.0
  0
SPLINE
  5
7978
330
796F
100
AcDbEntity
  8
0
100
AcDbSpline
210
0.0
220
0.0
230
1.0
 70
     8
 71
     3
 72
    17
 73
    13
 74
     0
 42
0.000000001
 43
0.0000000001
 40
-1.0
 40
-1.0
 40
-1.0
 40
-1.0
 40
-0.7994286890727322
 40
-0.7994286890727322
 40
-0.7994286890727322
 40
-0.3760960081002731
 40
-0.3760960081002731
 40
-0.3760960081002731
 40
-0.0765284972677348
 40
-0.0765284972677348
 40
-0.0765284972677348
 40
0.0
 40
0.0
 40
0.0
 40
0.0
 10
30.00000000000002
 20
2.000000000000031
 30
0.0
 10
29.99999961270333
 20
1.999093543231381
 30
0.0
 10
30.12633150600671
 20
1.919863896634118
 30
0.0
 10
30.33607694563715
 20
1.790687786202108
 30
0.0
 10
30.77877285698164
 20
1.518044261592513
 30
0.0
 10
31.61445008344357
 20
1.034207947879847
 30
0.0
 10
32.48107962101307
 20
0.6388614064418202
 30
0.0
 10
33.0943421094826
 20
0.3590980320130272
 30
0.0
 10
33.71765761685194
 20
0.1217220476576046
 30
0.0
 10
34.23393420694007
 20
0.0342615816144994
 30
0.0
 10
34.36582391522036
 20
0.0119186445649735
 30
0.0
 10
34.48832026105097
 20
0.0000045452574096
 30
0.0
 10
34.60606060611086
 20
0.0000000001152103
 30
0.0
  0
LINE
  5
7979
330
796F
100
AcDbEntity
  8
0
100
AcDbLine
 10
34.60606060606064
 20
2.000000000000008
 30
0.0
 11
34.60606060606064
 21
0.0
 31
0.0
  0
SPLINE
  5
797A
330
796F
100
AcDbEntity
  8
0
100
AcDbSpline
210
0.0
220
0.0
230
1.0
 70
     8
 71
     3
 72
    30
 73
    26
 74
     0
 42
0.000000001
 43
0.0000000001
 40
0.0364436675974761
 40
0.0364436675974761
 40
0.0364436675974761
 40
0.0364436675974761
 40
0.0380818744556008
 40
0.0380818744556008
 40
0.0410710676465785
 40
0.0410710676465785
 40
0.0442713980000677
 40
0.0442713980000677
 40
0.0469837442261365
 40
0.0469837442261365
 40
0.0505206700502614
 40
0.0505206700502614
 40
0.0557907467788317
 40
0.0557907467788317
 40
0.063735418000034
 40
0.063735418000034
 40
0.0751923871723678
 40
0.0751923871723678
 40
0.0899440113869745
 40
0.0899440113869745
 40
0.1081757582522807
 40
0.1081757582522807
 40
0.1267677338466249
 40
0.1267677338466249
 40
0.1329166086606366
 40
0.1329166086606366
 40
0.1329166086606366
 40
0.1329166086606366
 10
33.72383606961876
 20
2.017146192079928
 30
0.0
 10
33.72383606953972
 20
2.017146192088779
 30
0.0
 10
33.72433092020285
 20
2.017090688265212
 30
0.0
 10
33.7269227409086
 20
2.016807862417168
 30
0.0
 10
33.7298114775714
 20
2.016495928560988
 30
0.0
 10
33.73913251206557
 20
2.015552740415747
 30
0.0
 10
33.74599009086117
 20
2.014886001009884
 30
0.0
 10
33.76067270205346
 20
2.013570511794218
 30
0.0
 10
33.7683017328331
 20
2.012924217379632
 30
0.0
 10
33.78671156244121
 20
2.011471035814677
 30
0.0
 10
33.79787915805078
 20
2.010663909652104
 30
0.0
 10
33.82613745248195
 20
2.008810540943841
 30
0.0
 10
33.84370300474293
 20
2.007822836354383
 30
0.0
 10
33.88763450669616
 20
2.005704464465052
 30
0.0
 10
33.91435601556482
 20
2.00473153528476
 30
0.0
 10
33.97810991905994
 20
2.002914647765253
 30
0.0
 10
34.01514729986382
 20
2.002286943487341
 30
0.0
 10
34.09512567485115
 20
2.001329432564425
 30
0.0
 10
34.1356976374092
 20
2.001132540017338
 30
0.0
 10
34.22892435772025
 20
2.000741918812522
 30
0.0
 10
34.28733020135413
 20
2.000505885536624
 30
0.0
 10
34.40025108422029
 20
2.000183972768871
 30
0.0
 10
34.45905078823201
 20
2.000081116913563
 30
0.0
 10
34.5302306954836
 20
2.000028132716398
 30
0.0
 10
34.54733372396778
 20
2.000021401162422
 30
0.0
 10
34.56214430294232
 20
2.000020290751284
 30
0.0
  0
SPLINE
  5
797B
330
796F
100
AcDbEntity
  8
0
100
AcDbSpline
210
0.0
220
0.0
230
1.0
 70
     8
 71
     3
 72
     8
 73
     4
 74
     0
 42
0.000000001
 43
0.0000000001
 40
0.0
 40
0.0
 40
0.0
 40
0.0
 40
0.0035844581828144
 40
0.0035844581828144
 40
0.0035844581828144
 40
0.0035844581828144
 10
32.00006818291075
 20
3.999999759443455
 30
0.0
 10
32.00004435160047
 20
3.993919411365776
 30
0.0
 10
32.00002088730776
 20
3.987176448140614
 30
0.0
 10
32.00000004833793
 20
3.980382203132584
 30
0.0
  0
SPLINE
  5
797C
330
796F
100
AcDbEntity
  8
0
100
AcDbSpline
210
0.0
220
0.0
230
1.0
 70
     8
 71
     3
 72
    16
 73
    12
 74
     0
 42
0.000000001
 43
0.0000000001
 40
0.0342246246461706
 40
0.0342246246461706
 40
0.0342246246461706
 40
0.0342246246461706
 40
0.0346561750252689
 40
0.0346561750252689
 40
0.0493193961507754
 40
0.0493193961507754
 40
0.0566730724634523
 40
0.0566730724634523
 40
0.0653760087268716
 40
0.0653760087268716
 40
0.0712624208436238
 40
0.0712624208436238
 40
0.0712624208436238
 40
0.0712624208436238
 10
32.00005333994621
 20
3.996120833178544
 30
0.0
 10
32.0000631401675
 20
3.995427944740722
 30
0.0
 10
32.00007924257072
 20
3.994302359780462
 30
0.0
 10
32.00064673640878
 20
3.95559037541555
 30
0.0
 10
32.00169156724784
 20
3.916214944028447
 30
0.0
 10
32.00335343131661
 20
3.872210135209548
 30
0.0
 10
32.00392768185837
 20
3.859359259511532
 30
0.0
 10
32.0050263862418
 20
3.836898650023514
 30
0.0
 10
32.00550428300723
 20
3.828489640174377
 30
0.0
 10
32.00608715103975
 20
3.818602175381963
 30
0.0
 10
32.00623590775839
 20
3.81625383064839
 30
0.0
 10
32.00623590788488
 20
3.816253828636149
 30
0.0
  0
SPLINE
  5
797D
330
796F
100
AcDbEntity
  8
0
100
AcDbSpline
210
0.0
220
0.0
230
1.0
 70
     8
 71
     3
 72
     8
 73
     4
 74
     0
 42
0.000000001
 43
0.0000000001
 40
0.0003712429297238
 40
0.0003712429297238
 40
0.0003712429297238
 40
0.0003712429297238
 40
0.001092049158124
 40
0.001092049158124
 40
0.001092049158124
 40
0.001092049158124
 10
32.0000591793276
 20
3.997672736190494
 30
0.0
 10
32.00006952181362
 20
3.996211261866356
 30
0.0
 10
32.0000798447954
 20
3.99484727520667
 30
0.0
 10
32.00008992516128
 20
3.993579806499545
 30
0.0
  0
CIRCLE
  5
797E
330
796F
100
AcDbEntity
  8
0
100
AcDbCircle
 10
0.0
 20
67.99999999999998
 30
0.0
 40
2.5
  0
CIRCLE
  5
797F
330
796F
100
AcDbEntity
  8
0
100
AcDbCircle
 10
0.0
 20
47.99999999999998
 30
0.0
 40
2.5
  0
LINE
  5
7980
330
796F
100
AcDbEntity
  8
0
100
AcDbLine
 10
28.00000000000001
 20
2.000000000000005
 30
0.0
 11
-28.00000000000001
 21
2.000000000000005
 31
0.0
  0
LINE
  5
7981
330
796F
100
AcDbEntity
  8
0
100
AcDbLine
 10
27.99999999999999
 20
86.00000000000001
 30
0.0
 11
-27.99999999999999
 21
86.00000000000001
 31
0.0
  0
SPLINE
  5
7982
330
796F
100
AcDbEntity
  8
0
100
AcDbSpline
210
0.0
220
0.0
230
1.0
 70
     8
 71
     3
 72
    17
 73
    13
 74
     0
 42
0.000000001
 43
0.0000000001
 40
-1.0
 40
-1.0
 40
-1.0
 40
-1.0
 40
-0.7994286890727322
 40
-0.7994286890727322
 40
-0.7994286890727322
 40
-0.3760960081002731
 40
-0.3760960081002731
 40
-0.3760960081002731
 40
-0.0765284972677348
 40
-0.0765284972677348
 40
-0.0765284972677348
 40
0.0
 40
0.0
 40
0.0
 40
0.0
 10
-30.00000000000002
 20
2.000000000000031
 30
0.0
 10
-29.99999961270333
 20
1.999093543231381
 30
0.0
 10
-30.12633150600671
 20
1.919863896634118
 30
0.0
 10
-30.33607694563715
 20
1.790687786202108
 30
0.0
 10
-30.77877285698164
 20
1.518044261592513
 30
0.0
 10
-31.61445008344357
 20
1.034207947879847
 30
0.0
 10
-32.48107962101307
 20
0.6388614064418202
 30
0.0
 10
-33.0943421094826
 20
0.3590980320130272
 30
0.0
 10
-33.71765761685194
 20
0.1217220476576046
 30
0.0
 10
-34.23393420694007
 20
0.0342615816144994
 30
0.0
 10
-34.36582391522036
 20
0.0119186445649735
 30
0.0
 10
-34.48832026105097
 20
0.0000045452574096
 30
0.0
 10
-34.60606060611086
 20
0.0000000001152103
 30
0.0
  0
LINE
  5
7983
330
796F
100
AcDbEntity
  8
0
100
AcDbLine
 10
-34.0
 20
0.0
 30
0.0
 11
-34.60606060606064
 21
0.0
 31
0.0
  0
ARC
  5
7984
330
796F
100
AcDbEntity
  8
0
100
AcDbCircle
 10
-34.0
 20
4.000000000000004
 30
0.0
 40
3.999999999999999
100
AcDbArc
 50
270.0
 51
320.3072250898736
  0
ARC
  5
7985
330
796F
100
AcDbEntity
  8
0
100
AcDbCircle
 10
-34.0
 20
4.000000000000004
 30
0.0
 40
1.999999999999996
100
AcDbArc
 50
276.2400290860214
 51
357.6364425245688
  0
LINE
  5
7986
330
796F
100
AcDbEntity
  8
0
100
AcDbLine
 10
-34.60606060606064
 20
2.000000000000008
 30
0.0
 11
-34.56214430294232
 21
2.000000000000008
 31
0.0
  0
LINE
  5
7987
330
796F
100
AcDbEntity
  8
0
100
AcDbLine
 10
-34.00614404866488
 20
2.000000000000008
 30
0.0
 11
-34.00221802216242
 21
2.000000000000008
 31
0.0
  0
SPLINE
  5
7988
330
796F
100
AcDbEntity
  8
0
100
AcDbSpline
210
0.0
220
0.0
230
1.0
 70
     8
 71
     3
 72
    14
 73
    10
 74
     0
 42
0.000000001
 43
0.0000000001
 40
0.0
 40
0.0
 40
0.0
 40
0.0
 40
0.3435201403993635
 40
0.3435201403993635
 40
0.3435201403993635
 40
0.7570127568145829
 40
0.7570127568145829
 40
0.7570127568145829
 40
1.0
 40
1.0
 40
1.0
 40
1.0
 10
-34.60606060606063
 20
2.000000000000007
 30
0.0
 10
-34.28489935603197
 20
2.000036880620259
 30
0.0
 10
-33.87245051750061
 20
1.996834301352092
 30
0.0
 10
-33.47645515515054
 20
1.998675474349387
 30
0.0
 10
-32.99979850766529
 20
2.000891680476455
 30
0.0
 10
-32.53725634321003
 20
2.001068977479043
 30
0.0
 10
-32.26239324894931
 20
2.00112317049751
 30
0.0
 10
-32.10087107690462
 20
2.001155016802944
 30
0.0
 10
-31.99999576744408
 20
2.000250524375134
 30
0.0
 10
-31.9999999994884
 20
1.999999999992528
 30
0.0
  0
LINE
  5
7989
330
796F
100
AcDbEntity
  8
0
100
AcDbLine
 10
-34.60606060606064
 20
0.0
 30
0.0
 11
-34.60606060606064
 21
2.000000000000008
 31
0.0
  0
SPLINE
  5
798A
330
796F
100
AcDbEntity
  8
0
100
AcDbSpline
210
0.0
220
0.0
230
1.0
 70
     8
 71
     3
 72
    10
 73
     6
 74
     0
 42
0.000000001
 43
0.0000000001
 40
0.0194209731672631
 40
0.0194209731672631
 40
0.0194209731672631
 40
0.0194209731672631
 40
0.019662241948298
 40
0.019662241948298
 40
0.0230051729773329
 40
0.0230051729773329
 40
0.0230051729773329
 40
0.0230051729773329
 10
-32.00000000127189
 20
3.980395661599725
 30
0.0
 10
-32.00000140351042
 20
3.980852841213704
 30
0.0
 10
-32.00000281603944
 20
3.981310172710045
 30
0.0
 10
-32.0000239816106
 20
3.988091083045404
 30
0.0
 10
-32.00004595757222
 20
3.994329164026742
 30
0.0
 10
-32.00006818308753
 20
3.999999804543631
 30
0.0
  0
SPLINE
  5
798B
330
796F
100
AcDbEntity
  8
0
100
AcDbSpline
210
0.0
220
0.0
230
1.0
 70
     8
 71
     3
 72
     8
 73
     4
 74
     0
 42
0.000000001
 43
0.0000000001
 40
0.0136968585376605
 40
0.0136968585376605
 40
0.0136968585376605
 40
0.0136968585376605
 40
0.0144188232590952
 40
0.0144188232590952
 40
0.0144188232590952
 40
0.0144188232590952
 10
-32.00008995401321
 20
3.993574803809305
 30
0.0
 10
-32.00007988210015
 20
3.994841209688819
 30
0.0
 10
-32.00006953570808
 20
3.996209075709142
 30
0.0
 10
-32.00005918409829
 20
3.997671839294189
 30
0.0
  0
SPLINE
  5
798C
330
796F
100
AcDbEntity
  8
0
100
AcDbSpline
210
0.0
220
0.0
230
1.0
 70
     8
 71
     3
 72
    20
 73
    16
 74
     0
 42
0.000000001
 43
0.0000000001
 40
0.0375071351770044
 40
0.0375071351770044
 40
0.0375071351770044
 40
0.0375071351770044
 40
0.0458839272274502
 40
0.0458839272274502
 40
0.0558893633774307
 40
0.0558893633774307
 40
0.0668508488639816
 40
0.0668508488639816
 40
0.0731934725412302
 40
0.0731934725412302
 40
0.0742665402312401
 40
0.0742665402312401
 40
0.0744551933487864
 40
0.0744551933487864
 40
0.0745413693853135
 40
0.0745413693853135
 40
0.0745413693853135
 40
0.0745413693853135
 10
-32.00623590788486
 20
3.816253828636657
 30
0.0
 10
-32.00623590761417
 20
3.816253832943017
 30
0.0
 10
-32.00591396116447
 20
3.821367263280756
 30
0.0
 10
-32.00504489958774
 20
3.83676347875761
 30
0.0
 10
-32.0043507252307
 20
3.849779473005401
 30
0.0
 10
-32.00277903429032
 20
3.886064087241702
 30
0.0
 10
-32.00191025884717
 20
3.910137927269581
 30
0.0
 10
-32.0008248554601
 20
3.952312057612708
 30
0.0
 10
-32.00047952056214
 20
3.968845734667256
 30
0.0
 10
-32.00016120973173
 20
3.98877800372835
 30
0.0
 10
-32.00011562363567
 20
3.991791827986996
 30
0.0
 10
-32.00007150104151
 20
3.994845612193469
 30
0.0
 10
-32.00006524633867
 20
3.995282532474446
 30
0.0
 10
-32.0000575287398
 20
3.995825041247394
 30
0.0
 10
-32.00005530887155
 20
3.995981627323114
 30
0.0
 10
-32.00005334599966
 20
3.996120404926978
 30
0.0
  0
SPLINE
  5
798D
330
796F
100
AcDbEntity
  8
0
100
AcDbSpline
210
0.0
220
0.0
230
1.0
 70
     8
 71
     3
 72
    32
 73
    28
 74
     0
 42
0.000000001
 43
0.0000000001
 40
0.0
 40
0.0
 40
0.0
 40
0.0
 40
0.0062834381582309
 40
0.0062834381582309
 40
0.0147058050031531
 40
0.0147058050031531
 40
0.0373755794315185
 40
0.0373755794315185
 40
0.0501947864185511
 40
0.0501947864185511
 40
0.0667274351946983
 40
0.0667274351946983
 40
0.074595107951209
 40
0.074595107951209
 40
0.080882178900347
 40
0.080882178900347
 40
0.0854267844052889
 40
0.0854267844052889
 40
0.0883503176184133
 40
0.0883503176184133
 40
0.0902010186922605
 40
0.0902010186922605
 40
0.0931504657423912
 40
0.0931504657423912
 40
0.0957950367237963
 40
0.0957950367237963
 40
0.0964631606667439
 40
0.0964631606667439
 40
0.0964631606667439
 40
0.0964631606667439
 10
-34.56214430294232
 20
2.000020290751284
 30
0.0
 10
-34.54700960596301
 20
2.000021425462906
 30
0.0
 10
-34.52948500196232
 20
2.00002842579611
 30
0.0
 10
-34.4870918780637
 20
2.00006061557606
 30
0.0
 10
-34.4614239178668
 20
2.000092345612246
 30
0.0
 10
-34.36626722146719
 20
2.000257841536549
 30
0.0
 10
-34.29520834470137
 20
2.000490386304364
 30
0.0
 10
-34.18816022244551
 20
2.000912253182464
 30
0.0
 10
-34.15315286442278
 20
2.00103188198928
 30
0.0
 10
-34.07004998904799
 20
2.001571991469223
 30
0.0
 10
-34.01811518854018
 20
2.002075843423281
 30
0.0
 10
-33.93881711707428
 20
2.00397345344507
 30
0.0
 10
-33.9125835314813
 20
2.004777578178108
 30
0.0
 10
-33.865453767752
 20
2.006716589812278
 30
0.0
 10
-33.84430845976245
 20
2.007765721358475
 30
0.0
 10
-33.8089686281753
 20
2.009897236283085
 30
0.0
 10
-33.79426718191234
 20
2.010904595994775
 30
0.0
 10
-33.77187213354917
 20
2.012629908946669
 30
0.0
 10
-33.76345170626386
 20
2.01333060073635
 30
0.0
 10
-33.75130451238133
 20
2.014405930619985
 30
0.0
 10
-33.74694266113209
 20
2.014809472887629
 30
0.0
 10
-33.73705123411504
 20
2.015754670668157
 30
0.0
 10
-33.73234055574739
 20
2.01623757606236
 30
0.0
 10
-33.72656863504466
 20
2.016844122036753
 30
0.0
 10
-33.72469991147243
 20
2.01705024687446
 30
0.0
 10
-33.72391709527235
 20
2.017137115259636
 30
0.0
 10
-33.72383606963535
 20
2.017146192078068
 30
0.0
 10
-33.72383606961953
 20
2.017146192079839
 30
0.0
  0
LINE
  5
798E
330
796F
100
AcDbEntity
  8
0
100
AcDbLine
 10
-32.0
 20
2.000000000000012
 30
0.0
 11
-28.0
 21
2.000000000000005
 31
0.0
  0
LINE
  5
798F
330
796F
100
AcDbEntity
  8
0
100
AcDbLine
 10
-27.99999999999999
 20
86.00000000000001
 30
0.0
 11
-31.99999999999999
 21
86.00000000000001
 31
0.0
  0
LINE
  5
7990
330
796F
100
AcDbEntity
  8
0
100
AcDbLine
 10
-31.99999999999999
 20
2.000000000000012
 30
0.0
 11
-31.99999999999999
 21
86.00000000000001
 31
0.0
  0
LINE
  5
7991
330
796F
100
AcDbEntity
  8
0
100
AcDbLine
 10
32.0
 20
2.000000000000012
 30
0.0
 11
28.0
 21
2.000000000000005
 31
0.0
  0
LINE
  5
7992
330
796F
100
AcDbEntity
  8
0
100
AcDbLine
 10
31.99999999999999
 20
2.000000000000012
 30
0.0
 11
31.99999999999999
 21
86.00000000000001
 31
0.0
  0
LINE
  5
7993
330
796F
100
AcDbEntity
  8
0
100
AcDbLine
 10
27.99999999999999
 20
86.00000000000001
 30
0.0
 11
31.99999999999999
 21
86.00000000000001
 31
0.0
  0
LINE
  5
7994
330
796F
100
AcDbEntity
  8
0
100
AcDbLine
 10
71.50000000000005
 20
0.0
 30
0.0
 11
34.60606060606064
 21
0.0
 31
0.0
  0
LINE
  5
7995
330
796F
100
AcDbEntity
  8
0
100
AcDbLine
 10
71.50000000000005
 20
1.999999999999992
 30
0.0
 11
71.50000000000005
 21
0.0
 31
0.0
  0
LINE
  5
7996
330
796F
100
AcDbEntity
  8
0
100
AcDbLine
 10
34.60606060606064
 20
2.000000000000008
 30
0.0
 11
71.50000000000005
 21
1.999999999999992
 31
0.0
  0
LINE
  5
7997
330
796F
100
AcDbEntity
  8
0
100
AcDbLine
 10
-71.50000000000005
 20
1.999999999999992
 30
0.0
 11
-34.60606060606064
 21
2.000000000000008
 31
0.0
  0
LINE
  5
7998
330
796F
100
AcDbEntity
  8
0
100
AcDbLine
 10
-71.50000000000005
 20
0.0
 30
0.0
 11
-71.50000000000005
 21
1.999999999999992
 31
0.0
  0
LINE
  5
7999
330
796F
100
AcDbEntity
  8
0
100
AcDbLine
 10
-34.60606060606064
 20
0.0
 30
0.0
 11
-71.50000000000005
 21
0.0
 31
0.0
  0
ENDBLK
  5
7971
330
796F
100
AcDbEntity
  8
0
100
AcDbBlockEnd
  0
BLOCK
  5
799B
330
799A
100
AcDbEntity
  8
0
100
AcDbBlockBegin
  2
SAE300_60_2-ISO
 70
     0
 10
0.0
 20
0.0
 30
0.0
  3
SAE300_60_2-ISO
  1

  0
LINE
  5
799D
330
799A
100
AcDbEntity
  8
0
100
AcDbLine
 10
51.39133615546519
 20
-36.46542129177343
 30
0.0
 11
51.13936349093002
 21
-36.61089777747124
 31
0.0
  0
SPLINE
  5
799E
330
799A
100
AcDbEntity
  8
0
100
AcDbSpline
210
0.0
220
0.0
230
1.0
 70
     8
 71
     3
 72
    14
 73
    10
 74
     0
 42
0.000000001
 43
0.0000000001
 40
0.0
 40
0.0
 40
0.0
 40
0.0
 40
0.3435201403993635
 40
0.3435201403993635
 40
0.3435201403993635
 40
0.7570127568145829
 40
0.7570127568145829
 40
0.7570127568145829
 40
1.0
 40
1.0
 40
1.0
 40
1.0
 10
53.2340992821938
 20
-35.43706859041562
 30
0.0
 10
53.00697790590752
 20
-35.51826788332213
 30
0.0
 10
52.71759710080728
 20
-35.53408946222429
 30
0.0
 10
52.43628418885939
 20
-35.56196338970033
 30
0.0
 10
52.09766994674396
 20
-35.59551502713397
 30
0.0
 10
51.77047787776015
 20
-35.64712741245038
 30
0.0
 10
51.57608199965962
 20
-35.87255252763627
 30
0.0
 10
51.4618460577563
 20
-36.00502267367817
 30
0.0
 10
51.3911560151117
 20
-36.17305773072374
 30
0.0
 10
51.39133615510872
 20
-36.46542129021213
 30
0.0
  0
LINE
  5
799F
330
799A
100
AcDbEntity
  8
0
100
AcDbLine
 10
52.80554971783828
 20
-35.18964538407387
 30
0.0
 11
53.2340992821938
 21
-35.43706859041562
 31
0.0
  0
ELLIPSE
  5
79A0
330
799A
100
AcDbEntity
  8
0
100
AcDbEllipse
 10
51.39133615546519
 20
-36.00614196500159
 30
0.0
 11
1.999999999999996
 21
-0.0000000000001198
 31
0.0
210
0.0
220
0.0
230
1.0
 40
0.5773502691896257
 41
0.7853981633976872
 42
2.356194490192599
  0
LINE
  5
79A1
330
799A
100
AcDbEntity
  8
0
100
AcDbLine
 10
49.9771225930921
 20
-37.28191787270115
 30
0.0
 11
49.9771225930921
 21
-35.18964538407387
 31
0.0
  0
LINE
  5
79A2
330
799A
100
AcDbEntity
  8
0
100
AcDbLine
 10
51.13936349093002
 20
-36.61089777747124
 30
0.0
 11
49.9771225930921
 21
-37.28191787270115
 31
0.0
  0
ELLIPSE
  5
79A3
330
799A
100
AcDbEntity
  8
0
100
AcDbEllipse
 10
-17.90512840081644
 20
-60.14382213867747
 30
0.0
 11
-2.5
 21
-0.000000000000149
 31
0.0
210
0.0
220
0.0
230
1.0
 40
0.5773502691896259
 41
3.742856870268582
 42
5.681921090500122
  0
ELLIPSE
  5
79A4
330
799A
100
AcDbEntity
  8
0
100
AcDbEllipse
 10
-3.762992777085489
 20
-51.97885632940021
 30
0.0
 11
-2.5
 21
-0.000000000000149
 31
0.0
210
0.0
220
0.0
230
1.0
 40
0.5773502691896259
 41
3.742856870268582
 42
5.681921090500122
  0
LINE
  5
79A5
330
799A
100
AcDbEntity
  8
0
100
AcDbLine
 10
-10.834060588951
 20
-78.92324350001517
 30
0.0
 11
-50.43204033539765
 21
-56.06133923403887
 31
0.0
  0
LINE
  5
79A6
330
799A
100
AcDbEntity
  8
0
100
AcDbLine
 10
7.550715721899234
 20
-11.15402728301391
 30
0.0
 11
7.550715721899252
 21
-17.68599993043573
 31
0.0
  0
LINE
  5
79A7
330
799A
100
AcDbEntity
  8
0
100
AcDbLine
 10
18.86442422088397
 20
-25.85096573971299
 30
0.0
 11
8.96492928427234
 21
-20.1354896732189
 31
0.0
  0
LINE
  5
79A8
330
799A
100
AcDbEntity
  8
0
100
AcDbLine
 10
-50.43204033539764
 20
-54.4283460721834
 30
0.0
 11
-10.83406058895099
 21
-77.29025033815972
 31
0.0
  0
ELLIPSE
  5
79A9
330
799A
100
AcDbEntity
  8
0
100
AcDbEllipse
 10
-3.762992777085489
 20
-50.34586316754476
 30
0.0
 11
-2.5
 21
0.0000000000001492
 31
0.0
210
0.0
220
0.0
230
1.0
 40
0.5773502691896258
 41
0.0
 42
6.283185307179586
  0
ELLIPSE
  5
79AA
330
799A
100
AcDbEntity
  8
0
100
AcDbEllipse
 10
-17.90512840081644
 20
-58.51082897682203
 30
0.0
 11
-2.5
 21
0.0000000000001492
 31
0.0
210
0.0
220
0.0
230
1.0
 40
0.5773502691896258
 41
0.0
 42
6.283185307179586
  0
LINE
  5
79AB
330
799A
100
AcDbEntity
  8
0
100
AcDbLine
 10
7.550715721899234
 20
-11.15402728301391
 30
0.0
 11
7.46547381589488
 21
-11.20324172039176
 31
0.0
  0
SPLINE
  5
79AC
330
799A
100
AcDbEntity
  8
0
100
AcDbSpline
210
0.0
220
0.0
230
1.0
 70
     8
 71
     3
 72
    11
 73
     7
 74
     0
 42
0.000000001
 43
0.0000000001
 40
-1.0
 40
-1.0
 40
-1.0
 40
-1.0
 40
-0.7994286890727322
 40
-0.7994286890727322
 40
-0.7994286890727322
 40
-0.6581426868854582
 40
-0.6581426868854582
 40
-0.6581426868854582
 40
-0.6581426868854582
 10
7.550715721899221
 20
-11.15402728301393
 30
0.0
 10
7.551356957487302
 20
-10.7594151964074
 30
0.0
 10
7.518050639432285
 20
-10.40066690795586
 30
0.0
 10
7.461079520400422
 20
-10.05933017746068
 30
0.0
 10
7.420948049897808
 20
-9.818886507683671
 30
0.0
 10
7.366498454394201
 20
-9.589052337026746
 30
0.0
 10
7.299369619716236
 20
-9.366260130770216
 30
0.0
  0
ELLIPSE
  5
79AD
330
799A
100
AcDbEntity
  8
0
100
AcDbEllipse
 10
3.308075034779967
 20
-8.245258213458903
 30
0.0
 11
3.999999999999998
 21
-0.0000000000000001
 31
0.0
210
0.0
220
0.0
230
1.0
 40
0.5773502691896258
 41
6.058746940104461
 42
6.283185307179586
  0
ELLIPSE
  5
79AE
330
799A
100
AcDbEntity
  8
0
100
AcDbEllipse
 10
3.308075034779967
 20
-8.245258213458903
 30
0.0
 11
3.999999999999999
 21
0.0000000000000006
 31
0.0
210
0.0
220
0.0
230
1.0
 40
0.5773502691896258
 41
5.497787143782129
 42
6.058746940104459
  0
LINE
  5
79AF
330
799A
100
AcDbEntity
  8
0
100
AcDbLine
 10
6.136502159526155
 20
-9.878251375314359
 30
0.0
 11
6.136502159526155
 21
-10.07267779086352
 31
0.0
  0
LINE
  5
79B0
330
799A
100
AcDbEntity
  8
0
100
AcDbLine
 10
6.136502159526155
 20
-10.07267779086352
 30
0.0
 11
6.136502159526155
 21
-11.97052386394164
 31
0.0
  0
LINE
  5
79B1
330
799A
100
AcDbEntity
  8
0
100
AcDbLine
 10
7.46547381589488
 20
-11.20324172039176
 30
0.0
 11
6.136502159526147
 21
-11.97052386394164
 31
0.0
  0
SPLINE
  5
79B2
330
799A
100
AcDbEntity
  8
0
100
AcDbSpline
210
0.0
220
0.0
230
1.0
 70
     8
 71
     3
 72
    16
 73
    12
 74
     0
 42
0.000000001
 43
0.0000000001
 40
0.0
 40
0.0
 40
0.0
 40
0.0
 40
0.0351246640659872
 40
0.0351246640659872
 40
0.0553378226179623
 40
0.0553378226179623
 40
0.0803966030613209
 40
0.0803966030613209
 40
0.1060253987399665
 40
0.1060253987399665
 40
0.1164300308247221
 40
0.1164300308247221
 40
0.1164300308247221
 40
0.1164300308247221
 10
7.296702362867124
 20
-8.419285973290669
 30
0.0
 10
7.281507738595824
 20
-8.535374206205382
 30
0.0
 10
7.266577865438237
 20
-8.653602471297933
 30
0.0
 10
7.251725228694945
 20
-8.830967622826015
 30
0.0
 10
7.248149254308082
 20
-8.894480567716289
 30
0.0
 10
7.245905481424621
 20
-9.025574779644989
 30
0.0
 10
7.248639509417391
 20
-9.091427946215659
 30
0.0
 10
7.260504608080218
 20
-9.206868870432538
 30
0.0
 10
7.269561177256766
 20
-9.257495168133967
 30
0.0
 10
7.286395923231396
 20
-9.326305922094206
 30
0.0
 10
7.291787531836839
 20
-9.346036421653206
 30
0.0
 10
7.297902286477637
 20
-9.366357601418467
 30
0.0
  0
ELLIPSE
  5
79B3
330
799A
100
AcDbEntity
  8
0
100
AcDbEllipse
 10
8.964929284272344
 20
-18.50249651136345
 30
0.0
 11
1.000000000000105
 21
-1.732050807568816
 31
0.0
210
0.0
220
0.0
230
1.0
 40
0.5773502691896267
 41
3.926990816986997
 42
5.497787143781894
  0
LINE
  5
79B4
330
799A
100
AcDbEntity
  8
0
100
AcDbLine
 10
8.96492928427234
 20
-20.1354896732189
 30
0.0
 11
-50.43204033539764
 21
-54.4283460721834
 31
0.0
  0
ELLIPSE
  5
79B5
330
799A
100
AcDbEntity
  8
0
100
AcDbEllipse
 10
-50.43204033539764
 20
-52.79535291032795
 30
0.0
 11
2.000000000000208
 21
-3.464101615137638
 31
0.0
210
0.0
220
0.0
230
1.0
 40
0.5773502691896258
 41
3.926990816986997
 42
5.497787143781893
  0
LINE
  5
79B6
330
799A
100
AcDbEntity
  8
0
100
AcDbLine
 10
-51.84625389777074
 20
-51.97885632940023
 30
0.0
 11
7.550715721899248
 21
-17.68599993043572
 31
0.0
  0
LINE
  5
79B7
330
799A
100
AcDbEntity
  8
0
100
AcDbLine
 10
-53.26046746014384
 20
-51.16235974847249
 30
0.0
 11
-51.84625389777074
 21
-51.97885632940023
 31
0.0
  0
LINE
  5
79B8
330
799A
100
AcDbEntity
  8
0
100
AcDbLine
 10
-50.43204033539764
 20
-56.06133923403887
 30
0.0
 11
-50.43204033539764
 21
-54.4283460721834
 31
0.0
  0
ELLIPSE
  5
79B9
330
799A
100
AcDbEntity
  8
0
100
AcDbEllipse
 10
-50.43204033539764
 20
-52.79535291032795
 30
0.0
 11
1.000000000000104
 21
-1.732050807568819
 31
0.0
210
0.0
220
0.0
230
1.0
 40
0.5773502691896258
 41
3.926990816986997
 42
5.497787143781896
  0
LINE
  5
79BA
330
799A
100
AcDbEntity
  8
0
100
AcDbLine
 10
51.39133615546519
 20
-42.99739393919522
 30
0.0
 11
51.39133615546519
 21
-36.46542129177343
 31
0.0
  0
ELLIPSE
  5
79BB
330
799A
100
AcDbEntity
  8
0
100
AcDbEllipse
 10
48.56290903071901
 20
-41.36440077733978
 30
0.0
 11
1.999999999999999
 21
-3.464101615137755
 31
0.0
210
0.0
220
0.0
230
1.0
 40
0.5773502691896249
 41
0.0
 42
0.7853981633974457
  0
LINE
  5
79BC
330
799A
100
AcDbEntity
  8
0
100
AcDbLine
 10
-10.834060588951
 20
-77.29025033815972
 30
0.0
 11
-9.419847026577912
 21
-76.473753757232
 31
0.0
  0
LINE
  5
79BD
330
799A
100
AcDbEntity
  8
0
100
AcDbLine
 10
51.39133615546519
 20
-42.99739393919522
 30
0.0
 11
-8.005633464204811
 21
-77.29025033815972
 31
0.0
  0
ELLIPSE
  5
79BE
330
799A
100
AcDbEntity
  8
0
100
AcDbEllipse
 10
-10.83406058895099
 20
-75.65725717630427
 30
0.0
 11
2.000000000000002
 21
-3.464101615137759
 31
0.0
210
0.0
220
0.0
230
1.0
 40
0.5773502691896258
 41
5.497787143782137
 42
7.068583470577033
  0
LINE
  5
79BF
330
799A
100
AcDbEntity
  8
0
100
AcDbLine
 10
79.32205401233388
 20
-25.6468415944811
 30
0.0
 11
80.73626757470698
 21
-24.83034501355336
 31
0.0
  0
LINE
  5
79C0
330
799A
100
AcDbEntity
  8
0
100
AcDbLine
 10
53.2340992821938
 20
-35.43706859041562
 30
0.0
 11
79.32205401233388
 21
-25.6468415944811
 31
0.0
  0
ELLIPSE
  5
79C1
330
799A
100
AcDbEntity
  8
0
100
AcDbEllipse
 10
66.94768534156924
 20
29.67080176337238
 30
0.0
 11
-3.25
 21
5.62916512459885
 31
0.0
210
0.0
220
0.0
230
1.0
 40
0.577350269189626
 41
0.2193254863005916
 42
2.9222671672892
  0
ELLIPSE
  5
79C2
330
799A
100
AcDbEntity
  8
0
100
AcDbEllipse
 10
74.72585993462127
 20
29.26255347290851
 30
0.0
 11
1.25000000000013
 21
-2.165063509461022
 31
0.0
210
0.0
220
0.0
230
1.0
 40
0.5773502691896259
 41
3.742856870268576
 42
5.68192109050012
  0
LINE
  5
79C3
330
799A
100
AcDbEntity
  8
0
100
AcDbLine
 10
54.21976328021138
 20
53.34920261027644
 30
0.0
 11
80.73626757470693
 21
38.03989171788157
 31
0.0
  0
LINE
  5
79C4
330
799A
100
AcDbEntity
  8
0
100
AcDbLine
 10
80.73626757470698
 20
-24.83034501355336
 30
0.0
 11
80.73626757470693
 21
38.03989171788156
 31
0.0
  0
ELLIPSE
  5
79C5
330
799A
100
AcDbEntity
  8
0
100
AcDbEllipse
 10
51.39133615546519
 20
51.71620944842096
 30
0.0
 11
3.999999999999999
 21
-0.0000000000002383
 31
0.0
210
0.0
220
0.0
230
1.0
 40
0.5773502691896259
 41
0.7853981633976881
 42
2.356194490192585
  0
ELLIPSE
  5
79C6
330
799A
100
AcDbEntity
  8
0
100
AcDbEllipse
 10
24.1677250797831
 20
27.01718787535726
 30
0.0
 11
1.249999999999871
 21
2.16506350946117
 31
0.0
210
0.0
220
0.0
230
1.0
 40
0.577350269189626
 41
3.742856870268578
 42
5.681921090500118
  0
ELLIPSE
  5
79C7
330
799A
100
AcDbEntity
  8
0
100
AcDbEllipse
 10
25.5819386421562
 20
26.20069129442953
 30
0.0
 11
-1.25
 21
-2.165063509461096
 31
0.0
210
0.0
220
0.0
230
1.0
 40
0.5773502691896259
 41
0.0
 42
6.283185307179586
  0
LINE
  5
79C8
330
799A
100
AcDbEntity
  8
0
100
AcDbLine
 10
-9.419847026577926
 20
-69.94178110981019
 30
0.0
 11
18.86442422088398
 21
-26.66746232064074
 31
0.0
  0
LINE
  5
79C9
330
799A
100
AcDbEntity
  8
0
100
AcDbLine
 10
-8.005633464204828
 20
-70.75827769073793
 30
0.0
 11
-9.419847026577926
 21
-69.94178110981019
 31
0.0
  0
LINE
  5
79CA
330
799A
100
AcDbEntity
  8
0
100
AcDbLine
 10
20.27863778325708
 20
-27.48395890156846
 30
0.0
 11
-8.005633464204828
 21
-70.75827769073794
 31
0.0
  0
LINE
  5
79CB
330
799A
100
AcDbEntity
  8
0
100
AcDbLine
 10
20.27863778325708
 20
-27.48395890156846
 30
0.0
 11
18.86442422088398
 21
-26.66746232064074
 31
0.0
  0
LINE
  5
79CC
330
799A
100
AcDbEntity
  8
0
100
AcDbLine
 10
18.86442422088398
 20
-26.66746232064074
 30
0.0
 11
18.864424220884
 21
36.20277441079418
 31
0.0
  0
LINE
  5
79CD
330
799A
100
AcDbEntity
  8
0
100
AcDbLine
 10
20.2786377832571
 20
35.38627782986646
 30
0.0
 11
20.27863778325708
 21
-27.48395890156846
 31
0.0
  0
LINE
  5
79CE
330
799A
100
AcDbEntity
  8
0
100
AcDbLine
 10
18.864424220884
 20
36.20277441079418
 30
0.0
 11
20.2786377832571
 21
35.38627782986646
 31
0.0
  0
LINE
  5
79CF
330
799A
100
AcDbEntity
  8
0
100
AcDbLine
 10
-8.005633464204828
 20
-70.75827769073793
 30
0.0
 11
-8.005633464204805
 21
-77.29025033815972
 31
0.0
  0
LINE
  5
79D0
330
799A
100
AcDbEntity
  8
0
100
AcDbLine
 10
49.9771225930921
 20
-35.18964538407387
 30
0.0
 11
49.9771225930921
 21
52.5327060293487
 31
0.0
  0
LINE
  5
79D1
330
799A
100
AcDbEntity
  8
0
100
AcDbLine
 10
49.9771225930921
 20
52.5327060293487
 30
0.0
 11
20.2786377832571
 21
35.38627782986646
 31
0.0
  0
LINE
  5
79D2
330
799A
100
AcDbEntity
  8
0
100
AcDbLine
 10
18.864424220884
 20
36.20277441079418
 30
0.0
 11
48.56290903071901
 21
53.34920261027642
 31
0.0
  0
LINE
  5
79D3
330
799A
100
AcDbEntity
  8
0
100
AcDbLine
 10
-9.419847026577908
 20
-76.47375375723199
 30
0.0
 11
-9.419847026577926
 21
-69.94178110981019
 31
0.0
  0
LINE
  5
79D4
330
799A
100
AcDbEntity
  8
0
100
AcDbLine
 10
-10.834060588951
 20
-77.29025033815972
 30
0.0
 11
-10.834060588951
 21
-78.92324350001517
 31
0.0
  0
LINE
  5
79D5
330
799A
100
AcDbEntity
  8
0
100
AcDbLine
 10
-9.419847026577908
 20
-76.47375375723199
 30
0.0
 11
-8.005633464204805
 21
-77.29025033815972
 31
0.0
  0
ELLIPSE
  5
79D6
330
799A
100
AcDbEntity
  8
0
100
AcDbEllipse
 10
-10.83406058895099
 20
-75.65725717630427
 30
0.0
 11
1.000000000000001
 21
-1.732050807568879
 31
0.0
210
0.0
220
0.0
230
1.0
 40
0.5773502691896258
 41
5.497787143782137
 42
7.068583470577033
  0
LINE
  5
79D7
330
799A
100
AcDbEntity
  8
0
100
AcDbLine
 10
52.80554971783828
 20
-35.18964538407387
 30
0.0
 11
52.80554971783828
 21
52.5327060293487
 31
0.0
  0
ELLIPSE
  5
79D8
330
799A
100
AcDbEntity
  8
0
100
AcDbEllipse
 10
51.39133615546519
 20
51.71620944842096
 30
0.0
 11
-1.999999999999997
 21
-0.0000000000001195
 31
0.0
210
0.0
220
0.0
230
1.0
 40
0.5773502691896258
 41
3.926990816987004
 42
5.497787143781901
  0
LINE
  5
79D9
330
799A
100
AcDbEntity
  8
0
100
AcDbLine
 10
80.73626757470693
 20
38.03989171788157
 30
0.0
 11
79.32205401233384
 21
37.22339513695384
 31
0.0
  0
LINE
  5
79DA
330
799A
100
AcDbEntity
  8
0
100
AcDbLine
 10
79.32205401233388
 20
-25.6468415944811
 30
0.0
 11
79.32205401233384
 21
37.22339513695383
 31
0.0
  0
LINE
  5
79DB
330
799A
100
AcDbEntity
  8
0
100
AcDbLine
 10
49.9771225930921
 20
52.5327060293487
 30
0.0
 11
48.56290903071901
 21
53.34920261027642
 31
0.0
  0
LINE
  5
79DC
330
799A
100
AcDbEntity
  8
0
100
AcDbLine
 10
52.80554971783828
 20
52.5327060293487
 30
0.0
 11
54.21976328021138
 21
53.34920261027644
 31
0.0
  0
LINE
  5
79DD
330
799A
100
AcDbEntity
  8
0
100
AcDbLine
 10
79.32205401233384
 20
37.22339513695384
 30
0.0
 11
52.80554971783828
 21
52.5327060293487
 31
0.0
  0
ELLIPSE
  5
79DE
330
799A
100
AcDbEntity
  8
0
100
AcDbEllipse
 10
65.53347177919616
 20
28.85430518244465
 30
0.0
 11
-3.250000000000001
 21
5.629165124598852
 31
0.0
210
0.0
220
0.0
230
1.0
 40
0.5773502691896259
 41
0.0
 42
6.283185307179586
  0
ELLIPSE
  5
79DF
330
799A
100
AcDbEntity
  8
0
100
AcDbEllipse
 10
73.31164637224818
 20
28.44605689198079
 30
0.0
 11
-1.25
 21
2.165063509461096
 31
0.0
210
0.0
220
0.0
230
1.0
 40
0.5773502691896259
 41
0.0
 42
6.283185307179586
  0
LINE
  5
79E0
330
799A
100
AcDbEntity
  8
0
100
AcDbLine
 10
-8.834060588950993
 20
-79.12135879144203
 30
0.0
 11
50.56290903071903
 21
-44.82850239247753
 31
0.0
  0
ELLIPSE
  5
79E1
330
799A
100
AcDbEntity
  8
0
100
AcDbEllipse
 10
66.94768534156924
 20
-11.15402728301392
 30
0.0
 11
-3.250000000000001
 21
5.629165124598852
 31
0.0
210
0.0
220
0.0
230
1.0
 40
0.5773502691896259
 41
0.2193254863005913
 42
2.922267167289199
  0
ELLIPSE
  5
79E2
330
799A
100
AcDbEntity
  8
0
100
AcDbEllipse
 10
65.53347177919616
 20
-11.97052386394164
 30
0.0
 11
-3.250000000000001
 21
5.629165124598852
 31
0.0
210
0.0
220
0.0
230
1.0
 40
0.5773502691896259
 41
0.0
 42
6.283185307179586
  0
ELLIPSE
  5
79E3
330
799A
100
AcDbEntity
  8
0
100
AcDbEllipse
 10
59.16951074851721
 20
-18.91074480182732
 30
0.0
 11
1.25000000000013
 21
-2.165063509461022
 31
0.0
210
0.0
220
0.0
230
1.0
 40
0.5773502691896259
 41
3.74285687026858
 42
5.68192109050012
  0
ELLIPSE
  5
79E4
330
799A
100
AcDbEntity
  8
0
100
AcDbEllipse
 10
59.16951074851721
 20
-2.580813183272794
 30
0.0
 11
1.25000000000013
 21
-2.165063509461022
 31
0.0
210
0.0
220
0.0
230
1.0
 40
0.5773502691896259
 41
3.74285687026858
 42
5.681921090500121
  0
ELLIPSE
  5
79E5
330
799A
100
AcDbEntity
  8
0
100
AcDbEllipse
 10
59.16951074851721
 20
13.74911843528172
 30
0.0
 11
1.25000000000013
 21
-2.165063509461022
 31
0.0
210
0.0
220
0.0
230
1.0
 40
0.5773502691896259
 41
3.74285687026858
 42
5.681921090500121
  0
ELLIPSE
  5
79E6
330
799A
100
AcDbEntity
  8
0
100
AcDbEllipse
 10
59.16951074851721
 20
30.07905005383625
 30
0.0
 11
1.25000000000013
 21
-2.165063509461022
 31
0.0
210
0.0
220
0.0
230
1.0
 40
0.5773502691896259
 41
3.742856870268576
 42
5.68192109050012
  0
ELLIPSE
  5
79E7
330
799A
100
AcDbEntity
  8
0
100
AcDbEllipse
 10
57.75529718614413
 20
-19.72724138275504
 30
0.0
 11
-1.25
 21
2.165063509461096
 31
0.0
210
0.0
220
0.0
230
1.0
 40
0.5773502691896259
 41
0.0
 42
6.283185307179586
  0
ELLIPSE
  5
79E8
330
799A
100
AcDbEntity
  8
0
100
AcDbEllipse
 10
57.75529718614413
 20
-3.397309764200517
 30
0.0
 11
-1.25
 21
2.165063509461096
 31
0.0
210
0.0
220
0.0
230
1.0
 40
0.5773502691896259
 41
0.0
 42
6.283185307179586
  0
ELLIPSE
  5
79E9
330
799A
100
AcDbEntity
  8
0
100
AcDbEllipse
 10
57.75529718614413
 20
12.932621854354
 30
0.0
 11
-1.25
 21
2.165063509461096
 31
0.0
210
0.0
220
0.0
230
1.0
 40
0.5773502691896259
 41
0.0
 42
6.283185307179586
  0
ELLIPSE
  5
79EA
330
799A
100
AcDbEntity
  8
0
100
AcDbEllipse
 10
57.75529718614413
 20
29.26255347290852
 30
0.0
 11
-1.25
 21
2.165063509461096
 31
0.0
210
0.0
220
0.0
230
1.0
 40
0.5773502691896259
 41
0.0
 42
6.283185307179586
  0
ELLIPSE
  5
79EB
330
799A
100
AcDbEntity
  8
0
100
AcDbEllipse
 10
59.16951074851721
 20
46.40898167239078
 30
0.0
 11
1.25000000000013
 21
-2.165063509461022
 31
0.0
210
0.0
220
0.0
230
1.0
 40
0.5773502691896259
 41
3.74285687026858
 42
5.681921090500115
  0
ELLIPSE
  5
79EC
330
799A
100
AcDbEntity
  8
0
100
AcDbEllipse
 10
-0.2274588711527725
 20
79.0688449094998
 30
0.0
 11
1.25
 21
-2.165063509461097
 31
0.0
210
0.0
220
0.0
230
1.0
 40
0.5773502691896259
 41
0.0
 42
6.283185307179586
  0
ELLIPSE
  5
79ED
330
799A
100
AcDbEntity
  8
0
100
AcDbEllipse
 10
1.186754691220315
 20
79.88534149042752
 30
0.0
 11
1.250000000000128
 21
-2.165063509461022
 31
0.0
210
0.0
220
0.0
230
0.9999999999999998
 40
0.5773502691896258
 41
3.742856870268578
 42
5.681921090500119
  0
ELLIPSE
  5
79EE
330
799A
100
AcDbEntity
  8
0
100
AcDbEllipse
 10
57.75529718614413
 20
45.59248509146304
 30
0.0
 11
-1.25
 21
2.165063509461096
 31
0.0
210
0.0
220
0.0
230
1.0
 40
0.5773502691896259
 41
0.0
 42
6.283185307179586
  0
ELLIPSE
  5
79EF
330
799A
100
AcDbEntity
  8
0
100
AcDbEllipse
 10
74.72585993462127
 20
-19.72724138275505
 30
0.0
 11
1.25000000000013
 21
-2.165063509461022
 31
0.0
210
0.0
220
0.0
230
1.0
 40
0.5773502691896259
 41
3.74285687026858
 42
5.68192109050012
  0
ELLIPSE
  5
79F0
330
799A
100
AcDbEntity
  8
0
100
AcDbEllipse
 10
74.72585993462127
 20
-3.397309764200531
 30
0.0
 11
1.25000000000013
 21
-2.165063509461022
 31
0.0
210
0.0
220
0.0
230
1.0
 40
0.5773502691896259
 41
3.74285687026858
 42
5.681921090500121
  0
ELLIPSE
  5
79F1
330
799A
100
AcDbEntity
  8
0
100
AcDbEllipse
 10
74.72585993462127
 20
12.93262185435399
 30
0.0
 11
1.25000000000013
 21
-2.165063509461022
 31
0.0
210
0.0
220
0.0
230
1.0
 40
0.5773502691896259
 41
3.74285687026858
 42
5.681921090500121
  0
ELLIPSE
  5
79F2
330
799A
100
AcDbEntity
  8
0
100
AcDbEllipse
 10
73.31164637224818
 20
-20.54373796368277
 30
0.0
 11
-1.25
 21
2.165063509461096
 31
0.0
210
0.0
220
0.0
230
1.0
 40
0.5773502691896259
 41
0.0
 42
6.283185307179586
  0
ELLIPSE
  5
79F3
330
799A
100
AcDbEntity
  8
0
100
AcDbEllipse
 10
73.31164637224818
 20
-4.213806345128254
 30
0.0
 11
-1.25
 21
2.165063509461096
 31
0.0
210
0.0
220
0.0
230
1.0
 40
0.5773502691896259
 41
0.0
 42
6.283185307179586
  0
ELLIPSE
  5
79F4
330
799A
100
AcDbEntity
  8
0
100
AcDbEllipse
 10
73.31164637224818
 20
12.11612527342627
 30
0.0
 11
-1.25
 21
2.165063509461096
 31
0.0
210
0.0
220
0.0
230
1.0
 40
0.5773502691896259
 41
0.0
 42
6.283185307179586
  0
LINE
  5
79F5
330
799A
100
AcDbEntity
  8
0
100
AcDbLine
 10
-18.99420033419375
 20
28.44870143918147
 30
0.0
 11
-18.28698849020311
 21
27.36668272565092
 31
0.0
  0
LINE
  5
79F6
330
799A
100
AcDbEntity
  8
0
100
AcDbLine
 10
-23.56198265030885
 20
-2.172564892808961
 30
0.0
 11
-51.84625389777075
 21
-45.44688368197842
 31
0.0
  0
LINE
  5
79F7
330
799A
100
AcDbEntity
  8
0
100
AcDbLine
 10
-24.97619621268194
 20
-1.356068311881237
 30
0.0
 11
-23.56198265030885
 21
-2.172564892808961
 31
0.0
  0
LINE
  5
79F8
330
799A
100
AcDbEntity
  8
0
100
AcDbLine
 10
-53.26046746014384
 20
-44.63038710105069
 30
0.0
 11
-24.97619621268194
 21
-1.356068311881237
 31
0.0
  0
LINE
  5
79F9
330
799A
100
AcDbEntity
  8
0
100
AcDbLine
 10
-51.84625389777075
 20
-45.44688368197842
 30
0.0
 11
-53.26046746014384
 21
-44.63038710105069
 31
0.0
  0
LINE
  5
79FA
330
799A
100
AcDbEntity
  8
0
100
AcDbLine
 10
-23.56198265030883
 20
60.69767183862595
 30
0.0
 11
-23.56198265030885
 21
-2.172564892808956
 31
0.0
  0
LINE
  5
79FB
330
799A
100
AcDbEntity
  8
0
100
AcDbLine
 10
-24.97619621268194
 20
61.51416841955368
 30
0.0
 11
-23.56198265030883
 21
60.69767183862595
 31
0.0
  0
LINE
  5
79FC
330
799A
100
AcDbEntity
  8
0
100
AcDbLine
 10
-24.97619621268194
 20
-1.356068311881237
 30
0.0
 11
-24.97619621268194
 21
61.51416841955368
 31
0.0
  0
ELLIPSE
  5
79FD
330
799A
100
AcDbEntity
  8
0
100
AcDbEllipse
 10
-8.005633464204798
 20
71.31212739068641
 30
0.0
 11
-3.250000000000004
 21
5.629165124598849
 31
0.0
210
0.0
220
0.0
230
1.0
 40
0.5773502691896258
 41
4.71238898038469
 42
7.853981633974485
  0
ELLIPSE
  5
79FE
330
799A
100
AcDbEntity
  8
0
100
AcDbEllipse
 10
-6.591419901831709
 20
72.12862397161413
 30
0.0
 11
-3.25
 21
5.62916512459885
 31
0.0
210
0.0
220
0.0
230
1.0
 40
0.5773502691896258
 41
0.2193254863005924
 42
1.570796326794897
  0
ELLIPSE
  5
79FF
330
799A
100
AcDbEntity
  8
0
100
AcDbEllipse
 10
-15.78380805725682
 20
79.88534149042752
 30
0.0
 11
1.25
 21
-2.165063509461097
 31
0.0
210
0.0
220
0.0
230
1.0
 40
0.5773502691896259
 41
0.0
 42
6.283185307179586
  0
ELLIPSE
  5
7A00
330
799A
100
AcDbEntity
  8
0
100
AcDbEllipse
 10
-14.36959449488373
 20
80.70183807135526
 30
0.0
 11
1.250000000000128
 21
-2.165063509461022
 31
0.0
210
0.0
220
0.0
230
0.9999999999999998
 40
0.5773502691896258
 41
3.742856870268578
 42
5.68192109050012
  0
LINE
  5
7A01
330
799A
100
AcDbEntity
  8
0
100
AcDbLine
 10
4.722288597153059
 20
78.66059661903594
 30
0.0
 11
4.722288597153068
 21
80.29358978089138
 31
0.0
  0
ELLIPSE
  5
7A02
330
799A
100
AcDbEntity
  8
0
100
AcDbEllipse
 10
3.308075034779967
 20
79.47709319996366
 30
0.0
 11
1.999999999999997
 21
-0.0000000000000002
 31
0.0
210
0.0
220
0.0
230
1.0
 40
0.5773502691896258
 41
5.497787143782135
 42
7.068583470577028
  0
LINE
  5
7A03
330
799A
100
AcDbEntity
  8
0
100
AcDbLine
 10
6.136502159526155
 20
77.84410003810821
 30
0.0
 11
6.136502159526155
 21
-9.878251375314359
 31
0.0
  0
ELLIPSE
  5
7A04
330
799A
100
AcDbEntity
  8
0
100
AcDbEllipse
 10
3.308075034779967
 20
79.47709319996366
 30
0.0
 11
3.999999999999999
 21
-0.0000000000000003
 31
0.0
210
0.0
220
0.0
230
1.0
 40
0.5773502691896258
 41
5.497787143782139
 42
7.068583470577035
  0
LINE
  5
7A05
330
799A
100
AcDbEntity
  8
0
100
AcDbLine
 10
4.722288597153068
 20
80.29358978089138
 30
0.0
 11
6.136502159526164
 21
81.1100863618191
 31
0.0
  0
LINE
  5
7A06
330
799A
100
AcDbEntity
  8
0
100
AcDbLine
 10
4.722288597153059
 20
78.66059661903593
 30
0.0
 11
6.136502159526155
 21
77.84410003810821
 31
0.0
  0
LINE
  5
7A07
330
799A
100
AcDbEntity
  8
0
100
AcDbLine
 10
7.308075034779966
 20
-8.245258213458903
 30
0.0
 11
7.308075034779966
 21
79.47709319996366
 31
0.0
  0
LINE
  5
7A08
330
799A
100
AcDbEntity
  8
0
100
AcDbLine
 10
-21.79421569734248
 20
95.60290067328626
 30
0.0
 11
4.722288597153068
 21
80.29358978089138
 31
0.0
  0
LINE
  5
7A09
330
799A
100
AcDbEntity
  8
0
100
AcDbLine
 10
-21.7942156973425
 20
63.3512857266411
 30
0.0
 11
-21.79421569734248
 21
95.60290067328626
 31
0.0
  0
LINE
  5
7A0A
330
799A
100
AcDbEntity
  8
0
100
AcDbLine
 10
-51.84625389777074
 20
-51.97885632940023
 30
0.0
 11
-51.84625389777075
 21
-45.44688368197842
 31
0.0
  0
LINE
  5
7A0B
330
799A
100
AcDbEntity
  8
0
100
AcDbLine
 10
-23.56198265030883
 20
60.69767183862595
 30
0.0
 11
6.136502159526155
 21
77.84410003810821
 31
0.0
  0
LINE
  5
7A0C
330
799A
100
AcDbEntity
  8
0
100
AcDbLine
 10
-53.26046746014384
 20
-44.63038710105069
 30
0.0
 11
-53.26046746014384
 21
-51.16235974847249
 31
0.0
  0
LINE
  5
7A0D
330
799A
100
AcDbEntity
  8
0
100
AcDbLine
 10
4.722288597153059
 20
78.66059661903593
 30
0.0
 11
-24.97619621268194
 21
61.51416841955368
 31
0.0
  0
LINE
  5
7A0E
330
799A
100
AcDbEntity
  8
0
100
AcDbLine
 10
6.136502159526164
 20
81.1100863618191
 30
0.0
 11
-20.38000213496938
 21
96.41939725421398
 31
0.0
  0
LINE
  5
7A0F
330
799A
100
AcDbEntity
  8
0
100
AcDbLine
 10
-20.38000213496938
 20
96.41939725421398
 30
0.0
 11
-21.79421569734248
 21
95.60290067328626
 31
0.0
  0
ELLIPSE
  5
7A10
330
799A
100
AcDbEntity
  8
0
100
AcDbEllipse
 10
24.1677250797831
 20
-38.30253859886083
 30
0.0
 11
1.249999999999871
 21
2.16506350946117
 31
0.0
210
0.0
220
0.0
230
1.0
 40
0.577350269189626
 41
3.742856870268578
 42
5.681921090500114
  0
ELLIPSE
  5
7A11
330
799A
100
AcDbEntity
  8
0
100
AcDbEllipse
 10
25.5819386421562
 20
-39.11903517978855
 30
0.0
 11
-1.25
 21
-2.165063509461096
 31
0.0
210
0.0
220
0.0
230
1.0
 40
0.5773502691896259
 41
0.0
 42
6.283185307179586
  0
ELLIPSE
  5
7A12
330
799A
100
AcDbEntity
  8
0
100
AcDbEllipse
 10
24.1677250797831
 20
-21.97260698030631
 30
0.0
 11
1.249999999999871
 21
2.16506350946117
 31
0.0
210
0.0
220
0.0
230
1.0
 40
0.577350269189626
 41
3.742856870268578
 42
5.681921090500118
  0
ELLIPSE
  5
7A13
330
799A
100
AcDbEntity
  8
0
100
AcDbEllipse
 10
25.5819386421562
 20
-22.78910356123404
 30
0.0
 11
-1.25
 21
-2.165063509461096
 31
0.0
210
0.0
220
0.0
230
1.0
 40
0.5773502691896259
 41
0.0
 42
6.283185307179586
  0
ELLIPSE
  5
7A14
330
799A
100
AcDbEntity
  8
0
100
AcDbEllipse
 10
24.1677250797831
 20
-5.642675361751781
 30
0.0
 11
1.249999999999871
 21
2.16506350946117
 31
0.0
210
0.0
220
0.0
230
1.0
 40
0.577350269189626
 41
3.742856870268578
 42
5.681921090500119
  0
ELLIPSE
  5
7A15
330
799A
100
AcDbEntity
  8
0
100
AcDbEllipse
 10
25.5819386421562
 20
-6.459171942679509
 30
0.0
 11
-1.25
 21
-2.165063509461096
 31
0.0
210
0.0
220
0.0
230
1.0
 40
0.5773502691896259
 41
0.0
 42
6.283185307179586
  0
ELLIPSE
  5
7A16
330
799A
100
AcDbEntity
  8
0
100
AcDbEllipse
 10
24.1677250797831
 20
10.68725625680273
 30
0.0
 11
1.249999999999871
 21
2.16506350946117
 31
0.0
210
0.0
220
0.0
230
1.0
 40
0.577350269189626
 41
3.742856870268578
 42
5.681921090500118
  0
ELLIPSE
  5
7A17
330
799A
100
AcDbEntity
  8
0
100
AcDbEllipse
 10
25.5819386421562
 20
9.870759675875007
 30
0.0
 11
-1.25
 21
-2.165063509461096
 31
0.0
210
0.0
220
0.0
230
1.0
 40
0.5773502691896259
 41
0.0
 42
6.283185307179586
  0
ELLIPSE
  5
7A18
330
799A
100
AcDbEntity
  8
0
100
AcDbEllipse
 10
-19.67289535378282
 20
-4.82617878082407
 30
0.0
 11
1.24999999999987
 21
2.165063509461172
 31
0.0
210
0.0
220
0.0
230
1.0
 40
0.5773502691896259
 41
3.742856870268582
 42
5.681921090500116
  0
ELLIPSE
  5
7A19
330
799A
100
AcDbEntity
  8
0
100
AcDbEllipse
 10
-18.25868179140972
 20
-5.642675361751798
 30
0.0
 11
1.249999999999999
 21
2.165063509461096
 31
0.0
210
0.0
220
0.0
230
1.0
 40
0.5773502691896259
 41
0.0
 42
6.283185307179586
  0
ELLIPSE
  5
7A1A
330
799A
100
AcDbEntity
  8
0
100
AcDbEllipse
 10
-19.67289535378282
 20
11.50375283773044
 30
0.0
 11
1.24999999999987
 21
2.165063509461172
 31
0.0
210
0.0
220
0.0
230
1.0
 40
0.5773502691896259
 41
3.742856870268582
 42
5.681921090500116
  0
ELLIPSE
  5
7A1B
330
799A
100
AcDbEntity
  8
0
100
AcDbEllipse
 10
-18.25868179140972
 20
10.68725625680271
 30
0.0
 11
1.249999999999999
 21
2.165063509461096
 31
0.0
210
0.0
220
0.0
230
1.0
 40
0.5773502691896259
 41
0.0
 42
6.283185307179586
  0
ELLIPSE
  5
7A1C
330
799A
100
AcDbEntity
  8
0
100
AcDbEllipse
 10
-19.67289535378282
 20
27.83368445628497
 30
0.0
 11
1.24999999999987
 21
2.165063509461172
 31
0.0
210
0.0
220
0.0
230
1.0
 40
0.5773502691896259
 41
3.742856870268582
 42
5.681921090500117
  0
ELLIPSE
  5
7A1D
330
799A
100
AcDbEntity
  8
0
100
AcDbEllipse
 10
-18.25868179140972
 20
27.01718787535725
 30
0.0
 11
1.249999999999999
 21
2.165063509461096
 31
0.0
210
0.0
220
0.0
230
1.0
 40
0.5773502691896259
 41
0.0
 42
6.283185307179586
  0
ELLIPSE
  5
7A1E
330
799A
100
AcDbEntity
  8
0
100
AcDbEllipse
 10
-19.67289535378282
 20
44.16361607483948
 30
0.0
 11
1.24999999999987
 21
2.165063509461172
 31
0.0
210
0.0
220
0.0
230
1.0
 40
0.5773502691896259
 41
3.742856870268582
 42
5.681921090500117
  0
ELLIPSE
  5
7A1F
330
799A
100
AcDbEntity
  8
0
100
AcDbEllipse
 10
-18.25868179140972
 20
43.34711949391176
 30
0.0
 11
1.249999999999999
 21
2.165063509461096
 31
0.0
210
0.0
220
0.0
230
1.0
 40
0.5773502691896259
 41
0.0
 42
6.283185307179586
  0
ELLIPSE
  5
7A20
330
799A
100
AcDbEntity
  8
0
100
AcDbEllipse
 10
-19.67289535378282
 20
60.49354769339401
 30
0.0
 11
1.24999999999987
 21
2.165063509461172
 31
0.0
210
0.0
220
0.0
230
1.0
 40
0.5773502691896259
 41
3.742856870268582
 42
5.681921090500117
  0
ELLIPSE
  5
7A21
330
799A
100
AcDbEntity
  8
0
100
AcDbEllipse
 10
-18.25868179140972
 20
59.67705111246629
 30
0.0
 11
1.249999999999999
 21
2.165063509461096
 31
0.0
210
0.0
220
0.0
230
1.0
 40
0.5773502691896259
 41
0.0
 42
6.283185307179586
  0
ENDBLK
  5
799C
330
799A
100
AcDbEntity
  8
0
100
AcDbBlockEnd
  0
ENDSEC
  0
SECTION
  2
ENTITIES
  0
INSERT
  5
7A22
330
1F
100
AcDbEntity
  8
0
100
AcDbBlockReference
  2
SAE300_60_2-Front
 10
0.0
 20
0.0
 30
0.0
  0
INSERT
  5
7A23
330
1F
100
AcDbEntity
  8
0
100
AcDbBlockReference
  2
SAE300_60_2-Left
 10
108.1
 20
0.0
 30
0.0
  0
INSERT
  5
7A24
330
1F
100
AcDbEntity
  8
0
100
AcDbBlockReference
  2
SAE300_60_2-Right
 10
-108.1
 20
0.0
 30
0.0
  0
INSERT
  5
7A25
330
1F
100
AcDbEntity
  8
0
100
AcDbBlockReference
  2
SAE300_60_2-Top
 10
0.0
 20
-38.6
 30
0.0
  0
INSERT
  5
7A26
330
1F
100
AcDbEntity
  8
0
100
AcDbBlockReference
  2
SAE300_60_2-Bottom
 10
0.0
 20
156.6
 30
0.0
  0
INSERT
  5
7A27
330
1F
100
AcDbEntity
  8
0
100
AcDbBlockReference
  2
SAE300_60_2-ISO
 10
161.360467460144
 20
-135.0193972542139
 30
0.0
  0
MTEXT
  5
7A28
330
1F
100
AcDbEntity
  8
0
100
AcDbMText
 10
0.0
 20
-161.2
 30
0.0
 40
12.2
 41
0.0
 71
     5
 72
     5
  1
SAE300/60/2
 73
     1
 44
1.0
1001
ACAD
1000
MTEXTBEGIN
1070
    73
1070
     1
1070
    44
1040
1.0
1070
    74
1070
     0
1000
MTEXTEND
  0
ENDSEC
  0
SECTION
  2
OBJECTS
  0
DICTIONARY
  5
C
330
0
100
AcDbDictionary
281
     1
  3
ACAD_CIP_PREVIOUS_PRODUCT_INFO
350
216
  3
ACAD_COLOR
350
6B
  3
ACAD_DETAILVIEWSTYLE
350
21B
  3
ACAD_GROUP
350
D
  3
ACAD_LAYOUT
350
1A
  3
ACAD_MATERIAL
350
6A
  3
ACAD_MLEADERSTYLE
350
12D
  3
ACAD_MLINESTYLE
350
17
  3
ACAD_PLOTSETTINGS
350
19
  3
ACAD_PLOTSTYLENAME
350
E
  3
ACAD_SCALELIST
350
10C
  3
ACAD_SECTIONVIEWSTYLE
350
219
  3
ACAD_TABLESTYLE
350
7E
  3
ACAD_VISUALSTYLE
350
EF
  3
ACDB_RECOMPOSE_DATA
350
7B29
  3
AcDbVariableDictionary
350
5E
  3
DWGPROPS
350
7B2A
  0
DICTIONARY
  5
7A79
330
8
100
AcDbDictionary
280
     1
281
     1
  0
DICTIONARY
  5
1FF
330
2
100
AcDbDictionary
280
     1
281
     1
  3
ACAD_LAYERSTATES
360
200
  0
DICTIONARY
  5
13C
330
10
100
AcDbDictionary
280
     1
281
     1
  0
DICTIONARY
  5
1CE
330
1F
100
AcDbDictionary
280
     1
281
     1
  3
ACAD_LAYOUTSELFREF
360
7A81
  0
DICTIONARY
  5
7A2C
330
D2
100
AcDbDictionary
280
     1
281
     1
  3
ACAD_LAYOUTSELFREF
360
7A8A
  0
DICTIONARY
  5
7A2E
330
D6
100
AcDbDictionary
280
     1
281
     1
  3
ACAD_LAYOUTSELFREF
360
7A8D
  0
XRECORD
  5
216
102
{ACAD_REACTORS
330
C
102
}
330
C
100
AcDbXrecord
280
     1
300
ACD
300
2021
300
87393ACD_2021_0F
  0
DICTIONARY
  5
6B
102
{ACAD_REACTORS
330
C
102
}
330
C
100
AcDbDictionary
281
     1
  0
DICTIONARY
  5
21B
102
{ACAD_REACTORS
330
C
102
}
330
C
100
AcDbDictionary
281
     1
  3
Metric50
350
21C
  0
DICTIONARY
  5
D
102
{ACAD_REACTORS
330
C
102
}
330
C
100
AcDbDictionary
281
     1
  0
DICTIONARY
  5
1A
102
{ACAD_REACTORS
330
C
102
}
330
C
100
AcDbDictionary
281
     1
  3
Layout1
350
D3
  3
Layout2
350
D7
  3
Model
350
22
  0
DICTIONARY
  5
6A
102
{ACAD_REACTORS
330
C
102
}
330
C
100
AcDbDictionary
281
     1
  3
ByBlock
350
ED
  3
ByLayer
350
EC
  3
Global
350
EE
  0
DICTIONARY
  5
12D
102
{ACAD_REACTORS
330
C
102
}
330
C
100
AcDbDictionary
281
     1
  3
Standard
350
12E
  0
DICTIONARY
  5
17
102
{ACAD_REACTORS
330
C
102
}
330
C
100
AcDbDictionary
281
     1
  3
Standard
350
18
  0
DICTIONARY
  5
19
102
{ACAD_REACTORS
330
C
102
}
330
C
100
AcDbDictionary
281
     1
  0
ACDBDICTIONARYWDFLT
  5
E
102
{ACAD_REACTORS
330
C
102
}
330
C
100
AcDbDictionary
281
     1
  3
Normal
350
F
100
AcDbDictionaryWithDefault
340
F
  0
DICTIONARY
  5
10C
102
{ACAD_REACTORS
330
C
102
}
330
C
100
AcDbDictionary
281
     1
  3
A0
350
10D
  3
A1
350
1BE
  3
A2
350
1BF
  3
A3
350
1C0
  3
A4
350
1C1
  3
A5
350
1C2
  3
A6
350
1C3
  3
A7
350
1C4
  3
A8
350
1C5
  3
A9
350
1C6
  3
B0
350
1C7
  3
B1
350
1C8
  3
B2
350
1C9
  3
B3
350
1CA
  3
B4
350
1CB
  3
B5
350
1CC
  3
B6
350
1CD
  0
DICTIONARY
  5
219
102
{ACAD_REACTORS
330
C
102
}
330
C
100
AcDbDictionary
281
     1
  3
Metric50
350
21A
  0
DICTIONARY
  5
7E
102
{ACAD_REACTORS
330
C
102
}
330
C
100
AcDbDictionary
281
     1
  3
Standard
350
7F
  0
DICTIONARY
  5
EF
102
{ACAD_REACTORS
330
C
102
}
330
C
100
AcDbDictionary
281
     1
  3
2dWireframe
350
F5
  3
Basic
350
F4
  3
Brighten
350
FB
  3
ColorChange
350
FF
  3
Conceptual
350
F8
  3
Dim
350
FA
  3
EdgeColorOff
350
1E6
  3
Facepattern
350
FE
  3
Flat
350
F0
  3
FlatWithEdges
350
F1
  3
Gouraud
350
F2
  3
GouraudWithEdges
350
F3
  3
Hidden
350
F7
  3
JitterOff
350
1E4
  3
Linepattern
350
FD
  3
OverhangOff
350
1E5
  3
Realistic
350
F9
  3
Shaded
350
1F3
  3
Shaded with edges
350
1F2
  3
Shades of Gray
350
1EF
  3
Sketchy
350
1F0
  3
Thicken
350
FC
  3
Wireframe
350
F6
  3
X-Ray
350
1F1
  0
XRECORD
  5
7B29
102
{ACAD_REACTORS
330
C
102
}
330
C
100
AcDbXrecord
280
     1
 90
        1
330
7F
  0
DICTIONARY
  5
5E
102
{ACAD_REACTORS
330
C
102
}
330
C
100
AcDbDictionary
281
     1
  3
CANNOSCALE
350
146
  3
CENTEREXE
350
259
  3
CENTERLTYPEFILE
350
25A
  3
CMLEADERSTYLE
350
145
  3
CTABLESTYLE
350
84
  3
CVIEWDETAILSTYLE
350
227
  3
CVIEWSECTIONSTYLE
350
228
  3
DIMASSOC
350
5F
  3
HIDETEXT
350
63
  3
INDEXCTL
350
7AD6
  3
LAYEREVAL
350
1AE
  3
LAYERNOTIFY
350
1AF
  3
LIGHTINGUNITS
350
7AD4
  3
MSLTSCALE
350
7AD3
  3
PSOLHEIGHT
350
7B26
  3
PSOLWIDTH
350
7B25
  3
SORTENTS
350
7AD5
  3
XCLIPFRAME
350
7B27
  0
XRECORD
  5
7B2A
102
{ACAD_REACTORS
330
C
102
}
330
C
100
AcDbXrecord
280
     1
  1
DWGPROPS COOKIE
  2

  3

  4

  6

  7

  8
truole
  9

300
=
301
=
302
=
303
=
304
=
305
=
306
=
307
=
308
=
309
=
 40
0.007650462962963
 41
2460398.356956019
 42
2460398.373969908
  1

 90
        0
  0
DICTIONARY
  5
200
102
{ACAD_REACTORS
330
1FF
102
}
330
1FF
100
AcDbDictionary
281
     1
  0
XRECORD
  5
7A81
102
{ACAD_REACTORS
330
1CE
102
}
330
1CE
100
AcDbXrecord
280
     1
340
1F
  0
XRECORD
  5
7A8A
102
{ACAD_REACTORS
330
7A2C
102
}
330
7A2C
100
AcDbXrecord
280
     1
340
D2
  0
XRECORD
  5
7A8D
102
{ACAD_REACTORS
330
7A2E
102
}
330
7A2E
100
AcDbXrecord
280
     1
340
D6
  0
ACDBDETAILVIEWSTYLE
  5
21C
102
{ACAD_XDICTIONARY
360
7B69
102
}
102
{ACAD_REACTORS
330
21B
102
}
330
21B
100
AcDbModelDocViewStyle
 70
     0
  3
Metric50
290
     0
100
AcDbDetailViewStyle
 70
     0
 71
     0
 90
        3
 71
     1
340
11
 40
5.0
340
0
 40
5.0
300

 40
0.0
280
     1
 71
     2
340
16
 90
       25
 71
     3
340
11
 40
5.0
 90
        0
 40
15.0
 90
        1
300
%<\AcVar ViewDetailId>% (%<\AcVar ViewScale \f "%sn">%)
 71
     4
340
16
 90
       25
340
16
 90
       25
280
     0
  0
LAYOUT
  5
D3
102
{ACAD_XDICTIONARY
360
7B2E
102
}
102
{ACAD_REACTORS
330
1A
102
}
330
1A
100
AcDbPlotSettings
  1

  2
C:\Documents and Settings\basas\Application Data\Autodesk\AutoCAD 2005\R16.1\enu\plotters\Default Windows System Printer.pc3
  4

  6

 40
0.0
 41
0.0
 42
0.0
 43
0.0
 44
0.0
 45
0.0
 46
0.0
 47
0.0
 48
0.0
 49
0.0
140
0.0
141
0.0
142
1.0
143
1.0
 70
   688
 72
     0
 73
     0
 74
     5
  7

 75
    16
147
1.0
148
0.0
149
0.0
100
AcDbLayout
  1
Layout1
 70
     1
 71
     1
 10
0.0
 20
0.0
 11
12.0
 21
9.0
 12
0.0
 22
0.0
 32
0.0
 14
0.0
 24
0.0
 34
0.0
 15
0.0
 25
0.0
 35
0.0
146
0.0
 13
0.0
 23
0.0
 33
0.0
 16
1.0
 26
0.0
 36
0.0
 17
0.0
 27
1.0
 37
0.0
 76
     0
330
D2
  0
LAYOUT
  5
D7
102
{ACAD_XDICTIONARY
360
7B30
102
}
102
{ACAD_REACTORS
330
1A
102
}
330
1A
100
AcDbPlotSettings
  1

  2
C:\Documents and Settings\basas\Application Data\Autodesk\AutoCAD 2005\R16.1\enu\plotters\Default Windows System Printer.pc3
  4

  6

 40
0.0
 41
0.0
 42
0.0
 43
0.0
 44
0.0
 45
0.0
 46
0.0
 47
0.0
 48
0.0
 49
0.0
140
0.0
141
0.0
142
1.0
143
1.0
 70
   688
 72
     0
 73
     0
 74
     5
  7

 75
    16
147
1.0
148
0.0
149
0.0
100
AcDbLayout
  1
Layout2
 70
     1
 71
     2
 10
0.0
 20
0.0
 11
12.0
 21
9.0
 12
0.0
 22
0.0
 32
0.0
 14
0.0
 24
0.0
 34
0.0
 15
0.0
 25
0.0
 35
0.0
146
0.0
 13
0.0
 23
0.0
 33
0.0
 16
1.0
 26
0.0
 36
0.0
 17
0.0
 27
1.0
 37
0.0
 76
     0
330
D6
  0
LAYOUT
  5
22
102
{ACAD_XDICTIONARY
360
7B2B
102
}
102
{ACAD_REACTORS
330
1A
102
}
330
1A
100
AcDbPlotSettings
  1

  2
none_device
  4
ISO_A4_(210.00_x_297.00_MM)
  6

 40
7.5
 41
20.0
 42
7.5
 43
20.0
 44
210.0
 45
297.0
 46
11.54999923706054
 47
-13.65000009536743
 48
0.0
 49
0.0
140
0.0
141
0.0
142
1.0
143
8.704084754739808
 70
 11952
 72
     1
 73
     0
 74
     0
  7

 75
     0
147
0.1148885871608098
148
0.0
149
0.0
100
AcDbLayout
  1
Model
 70
     1
 71
     0
 10
0.0
 20
0.0
 11
12.0
 21
9.0
 12
0.0
 22
0.0
 32
0.0
 14
0.0
 24
0.0
 34
0.0
 15
0.0
 25
0.0
 35
0.0
146
0.0
 13
0.0
 23
0.0
 33
0.0
 16
1.0
 26
0.0
 36
0.0
 17
0.0
 27
1.0
 37
0.0
 76
     0
330
1F
331
EA
1001
ACAD_PSEXT
1000
None
1000
None
1000
Not applicable
1000
The layout will not be plotted unless a new plotter configuration name is selected.
1070
     0
  0
MATERIAL
  5
ED
102
{ACAD_XDICTIONARY
360
1F9
102
}
102
{ACAD_REACTORS
330
6A
102
}
330
6A
100
AcDbMaterial
  1
ByBlock
  0
MATERIAL
  5
EC
102
{ACAD_XDICTIONARY
360
1F7
102
}
102
{ACAD_REACTORS
330
6A
102
}
330
6A
100
AcDbMaterial
  1
ByLayer
  0
MATERIAL
  5
EE
102
{ACAD_XDICTIONARY
360
173
102
}
102
{ACAD_REACTORS
330
6A
102
}
330
6A
100
AcDbMaterial
  1
Global
 43
0.0007999999797903
 43
0.0
 43
0.0
 43
0.0
 43
0.0
 43
0.0007999999797903
 43
0.0
 43
0.0
 43
0.0
 43
0.0
 43
1.0
 43
0.0
 43
0.0
 43
0.0
 43
0.0
 43
1.0
 49
0.0007999999797903
 49
0.0
 49
0.0
 49
0.0
 49
0.0
 49
0.0007999999797903
 49
0.0
 49
0.0
 49
0.0
 49
0.0
 49
1.0
 49
0.0
 49
0.0
 49
0.0
 49
0.0
 49
1.0
142
0.0007999999797903
142
0.0
142
0.0
142
0.0
142
0.0
142
0.0007999999797903
142
0.0
142
0.0
142
0.0
142
0.0
142
1.0
142
0.0
142
0.0
142
0.0
142
0.0
142
1.0
144
0.0007999999797903
144
0.0
144
0.0
144
0.0
144
0.0
144
0.0007999999797903
144
0.0
144
0.0
144
0.0
144
0.0
144
1.0
144
0.0
144
0.0
144
0.0
144
0.0
144
1.0
1001
ACAD
1070
    -1
1070
     3
1070
     0
1000

1071
        0
1070
     0
  0
MLEADERSTYLE
  5
12E
102
{ACAD_XDICTIONARY
360
7B55
102
}
102
{ACAD_REACTORS
330
12D
102
}
330
12D
100
AcDbMLeaderStyle
170
     2
171
     1
172
     0
 90
        2
 40
0.0
 41
0.0
173
     1
 91
-1056964608
340
14
 92
       -2
290
     1
 42
2.0
291
     1
 43
8.0
  3
Standard
 44
4.0
300

342
11
174
     1
178
     1
175
     1
176
     0
 93
-1056964608
 45
4.0
292
     0
297
     0
 46
4.0
 94
-1056964608
 47
1.0
 49
1.0
140
1.0
293
     1
141
0.0
294
     1
177
     0
142
1.0
295
     0
296
     0
143
3.75
1001
ACAD_MLEADERVER
1070
     2
  0
MLINESTYLE
  5
18
102
{ACAD_REACTORS
330
17
102
}
330
17
100
AcDbMlineStyle
  2
STANDARD
 70
     0
  3

 62
   256
 51
90.0
 52
90.0
 71
     2
 49
0.5
 62
   256
  6
BYLAYER
 49
-0.5
 62
   256
  6
BYLAYER
  0
ACDBPLACEHOLDER
  5
F
102
{ACAD_REACTORS
330
E
102
}
330
E
  0
SCALE
  5
10D
102
{ACAD_REACTORS
330
10C
102
}
330
10C
100
AcDbScale
 70
     0
300
1:1
140
1.0
141
1.0
290
     1
  0
SCALE
  5
1BE
102
{ACAD_REACTORS
330
10C
102
}
330
10C
100
AcDbScale
 70
     0
300
1:2
140
1.0
141
2.0
290
     0
  0
SCALE
  5
1BF
102
{ACAD_REACTORS
330
10C
102
}
330
10C
100
AcDbScale
 70
     0
300
1:4
140
1.0
141
4.0
290
     0
  0
SCALE
  5
1C0
102
{ACAD_REACTORS
330
10C
102
}
330
10C
100
AcDbScale
 70
     0
300
1:5
140
1.0
141
5.0
290
     0
  0
SCALE
  5
1C1
102
{ACAD_REACTORS
330
10C
102
}
330
10C
100
AcDbScale
 70
     0
300
1:8
140
1.0
141
8.0
290
     0
  0
SCALE
  5
1C2
102
{ACAD_REACTORS
330
10C
102
}
330
10C
100
AcDbScale
 70
     0
300
1:10
140
1.0
141
10.0
290
     0
  0
SCALE
  5
1C3
102
{ACAD_REACTORS
330
10C
102
}
330
10C
100
AcDbScale
 70
     0
300
1:16
140
1.0
141
16.0
290
     0
  0
SCALE
  5
1C4
102
{ACAD_REACTORS
330
10C
102
}
330
10C
100
AcDbScale
 70
     0
300
1:20
140
1.0
141
20.0
290
     0
  0
SCALE
  5
1C5
102
{ACAD_REACTORS
330
10C
102
}
330
10C
100
AcDbScale
 70
     0
300
1:30
140
1.0
141
30.0
290
     0
  0
SCALE
  5
1C6
102
{ACAD_REACTORS
330
10C
102
}
330
10C
100
AcDbScale
 70
     0
300
1:40
140
1.0
141
40.0
290
     0
  0
SCALE
  5
1C7
102
{ACAD_REACTORS
330
10C
102
}
330
10C
100
AcDbScale
 70
     0
300
1:50
140
1.0
141
50.0
290
     0
  0
SCALE
  5
1C8
102
{ACAD_REACTORS
330
10C
102
}
330
10C
100
AcDbScale
 70
     0
300
1:100
140
1.0
141
100.0
290
     0
  0
SCALE
  5
1C9
102
{ACAD_REACTORS
330
10C
102
}
330
10C
100
AcDbScale
 70
     0
300
2:1
140
2.0
141
1.0
290
     0
  0
SCALE
  5
1CA
102
{ACAD_REACTORS
330
10C
102
}
330
10C
100
AcDbScale
 70
     0
300
4:1
140
4.0
141
1.0
290
     0
  0
SCALE
  5
1CB
102
{ACAD_REACTORS
330
10C
102
}
330
10C
100
AcDbScale
 70
     0
300
8:1
140
8.0
141
1.0
290
     0
  0
SCALE
  5
1CC
102
{ACAD_REACTORS
330
10C
102
}
330
10C
100
AcDbScale
 70
     0
300
10:1
140
10.0
141
1.0
290
     0
  0
SCALE
  5
1CD
102
{ACAD_REACTORS
330
10C
102
}
330
10C
100
AcDbScale
 70
     0
300
100:1
140
100.0
141
1.0
290
     0
  0
ACDBSECTIONVIEWSTYLE
  5
21A
102
{ACAD_XDICTIONARY
360
7B67
102
}
102
{ACAD_REACTORS
330
219
102
}
330
219
100
AcDbModelDocViewStyle
 70
     0
  3
Metric50
290
     0
100
AcDbSectionViewStyle
 70
     0
 71
     0
 90
      102
 71
     1
340
11
 40
5.0
340
0
340
0
 40
5.0
300
I, O, Q, S, X, Z
 40
10.0
 90
        0
 40
2.5
 90
        0
 71
     2
340
16
 90
       25
340
16
 90
       50
 40
5.0
 40
2.5
 40
5.0
 71
     3
340
11
 40
5.0
 90
        0
 40
15.0
 90
        1
300
%<\AcVar ViewSectionStartId>%-%<\AcVar ViewSectionEndId>% (%<\AcVar ViewScale \f "%sn">%)
 71
     4
300
ANSI31
 40
1.0
 90
        0
290
     0
290
     0
 90
        6
 40
0.0
 40
1.570796326794896
 40
0.2617993877991494
 40
1.308996938995747
 40
-0.2617993877991494
 40
1.832595714594046
  0
TABLESTYLE
  5
7F
102
{ACAD_XDICTIONARY
360
162
102
}
102
{ACAD_REACTORS
330
7E
102
}
330
7E
100
AcDbTableStyle
  3
Standard
 70
     0
 71
     0
 40
1.5
 41
1.5
280
     0
281
     0
  7
Standard
140
4.5
170
     2
 62
     0
 63
     7
283
     0
274
    -2
284
     1
 64
     0
275
    -2
285
     1
 65
     0
276
    -2
286
     1
 66
     0
277
    -2
287
     1
 67
     0
278
    -2
288
     1
 68
     0
279
    -2
289
     1
 69
     0
  7
Standard
140
6.0
170
     5
 62
     0
 63
     7
283
     0
274
    -2
284
     1
 64
     0
275
    -2
285
     1
 65
     0
276
    -2
286
     1
 66
     0
277
    -2
287
     1
 67
     0
278
    -2
288
     1
 68
     0
279
    -2
289
     1
 69
     0
  7
Standard
140
4.5
170
     5
 62
     0
 63
     7
283
     0
274
    -2
284
     1
 64
     0
275
    -2
285
     1
 65
     0
276
    -2
286
     1
 66
     0
277
    -2
287
     1
 67
     0
278
    -2
288
     1
 68
     0
279
    -2
289
     1
 69
     0
  0
VISUALSTYLE
  5
F5
102
{ACAD_XDICTIONARY
360
7B3F
102
}
102
{ACAD_REACTORS
330
EF
102
}
330
EF
100
AcDbVisualStyle
  2
2dWireframe
 70
     4
 71
     0
 72
     2
 73
     1
 90
        0
 40
-0.6
 41
-30.0
 62
     5
 63
     7
 74
     1
 91
        4
 64
     7
 65
   257
 75
     1
175
     1
 42
1.0
 92
        0
 66
   257
 43
1.0
 76
     1
 77
     6
 78
     2
 67
     7
 79
     5
170
     0
171
     0
290
     0
174
     0
 93
        1
 44
0.0
173
     0
291
     0
 45
0.0
1001
ACAD
1000
AcDbSavedByObjectVersion
1070
     0
  0
VISUALSTYLE
  5
F4
102
{ACAD_XDICTIONARY
360
7B3D
102
}
102
{ACAD_REACTORS
330
EF
102
}
330
EF
100
AcDbVisualStyle
  2
Basic
 70
     7
 71
     1
 72
     0
 73
     1
 90
        0
 40
-0.6
 41
-30.0
 62
     5
 63
     7
 74
     0
 91
        4
 64
     7
 65
   257
 75
     1
175
     1
 42
1.0
 92
        8
 66
     7
 43
1.0
 76
     1
 77
     6
 78
     2
 67
     7
 79
     5
170
     0
171
     0
290
     0
174
     0
 93
        1
 44
0.0
173
     0
291
     1
 45
0.0
1001
ACAD
1000
AcDbSavedByObjectVersion
1070
     0
  0
VISUALSTYLE
  5
FB
102
{ACAD_XDICTIONARY
360
7B4B
102
}
102
{ACAD_REACTORS
330
EF
102
}
330
EF
100
AcDbVisualStyle
  2
Brighten
 70
    12
 71
     2
 72
     2
 73
     1
 90
        0
 40
-0.6
 41
-30.0
 62
     5
 63
     7
 74
     1
 91
        4
 64
     7
 65
   257
 75
     1
175
     1
 42
1.0
 92
        8
 66
     7
 43
1.0
 76
     1
 77
     6
 78
     2
 67
     7
 79
     5
170
     0
171
     0
290
     0
174
     0
 93
        1
 44
50.0
173
     0
291
     1
 45
0.0
1001
ACAD
1000
AcDbSavedByObjectVersion
1070
     0
  0
VISUALSTYLE
  5
FF
102
{ACAD_XDICTIONARY
360
7B53
102
}
102
{ACAD_REACTORS
330
EF
102
}
330
EF
100
AcDbVisualStyle
  2
ColorChange
 70
    16
 71
     2
 72
     2
 73
     3
 90
        0
 40
-0.6
 41
-30.0
 62
     5
 63
     8
 74
     1
 91
        4
 64
     7
 65
   257
 75
     1
175
     1
 42
1.0
 92
        8
 66
     8
 43
1.0
 76
     1
 77
     6
 78
     2
 67
     7
 79
     5
170
     0
171
     0
290
     0
174
     0
 93
        1
 44
0.0
173
     0
291
     1
 45
0.0
1001
ACAD
1000
AcDbSavedByObjectVersion
1070
     0
  0
VISUALSTYLE
  5
F8
102
{ACAD_XDICTIONARY
360
7B45
102
}
102
{ACAD_REACTORS
330
EF
102
}
330
EF
100
AcDbVisualStyle
  2
Conceptual
 70
     9
 71
     3
 72
     2
 73
     1
 90
        0
 40
-0.6
 41
-30.0
 62
     5
 63
     7
 74
     2
 91
        2
 64
     7
 65
   257
 75
     1
175
     1
 42
40.0
 92
        8
 66
     7
 43
1.0
 76
     1
 77
     6
 78
     2
 67
     7
 79
     3
170
     0
171
     0
290
     0
174
     0
 93
        1
 44
0.0
173
     0
291
     0
 45
0.0
1001
ACAD
1000
AcDbSavedByObjectVersion
1070
     0
  0
VISUALSTYLE
  5
FA
102
{ACAD_XDICTIONARY
360
7B49
102
}
102
{ACAD_REACTORS
330
EF
102
}
330
EF
100
AcDbVisualStyle
  2
Dim
 70
    11
 71
     2
 72
     2
 73
     1
 90
        0
 40
-0.6
 41
-30.0
 62
     5
 63
     7
 74
     1
 91
        4
 64
     7
 65
   257
 75
     1
175
     1
 42
1.0
 92
        8
 66
     7
 43
1.0
 76
     1
 77
     6
 78
     2
 67
     7
 79
     5
170
     0
171
     0
290
     0
174
     0
 93
        1
 44
-50.0
173
     0
291
     1
 45
0.0
1001
ACAD
1000
AcDbSavedByObjectVersion
1070
     0
  0
VISUALSTYLE
  5
1E6
102
{ACAD_XDICTIONARY
360
7B5B
102
}
102
{ACAD_REACTORS
330
EF
102
}
330
EF
100
AcDbVisualStyle
  2
EdgeColorOff
 70
    22
 71
     2
 72
     2
 73
     0
 90
        0
 40
-0.6
 41
-30.0
 62
     5
 63
     7
 74
     1
 91
        4
 64
     7
 65
   257
 75
     1
175
     1
 42
1.0
 92
        8
 66
     7
 43
1.0
 76
     1
 77
     6
 78
     2
 67
     7
 79
     5
170
     0
171
     0
290
     0
174
     0
 93
        1
 44
0.0
173
     0
291
     1
 45
0.0
1001
ACAD
1000
AcDbSavedByObjectVersion
1070
     0
  0
VISUALSTYLE
  5
FE
102
{ACAD_XDICTIONARY
360
7B51
102
}
102
{ACAD_REACTORS
330
EF
102
}
330
EF
100
AcDbVisualStyle
  2
Facepattern
 70
    15
 71
     2
 72
     2
 73
     1
 90
        0
 40
-0.6
 41
-30.0
 62
     5
 63
     7
 74
     1
 91
        4
 64
     7
 65
   257
 75
     1
175
     1
 42
1.0
 92
        8
 66
     7
 43
1.0
 76
     1
 77
     6
 78
     2
 67
     7
 79
     5
170
     0
171
     0
290
     0
174
     0
 93
        1
 44
0.0
173
     0
291
     1
 45
0.0
1001
ACAD
1000
AcDbSavedByObjectVersion
1070
     0
  0
VISUALSTYLE
  5
F0
102
{ACAD_XDICTIONARY
360
7B35
102
}
102
{ACAD_REACTORS
330
EF
102
}
330
EF
100
AcDbVisualStyle
  2
Flat
 70
     0
 71
     2
 72
     1
 73
     1
 90
        2
 40
-0.6
 41
30.0
 62
     5
 63
     7
 74
     0
 91
        0
 64
     7
 65
   257
 75
     1
175
     1
 42
1.0
 92
        8
 66
     7
 43
1.0
 76
     1
 77
     6
 78
     2
 67
     7
 79
     5
170
     0
171
     0
290
     0
174
     0
 93
       13
 44
0.0
173
     0
291
     1
 45
0.0
1001
ACAD
1000
AcDbSavedByObjectVersion
1070
     0
  0
VISUALSTYLE
  5
F1
102
{ACAD_XDICTIONARY
360
7B37
102
}
102
{ACAD_REACTORS
330
EF
102
}
330
EF
100
AcDbVisualStyle
  2
FlatWithEdges
 70
     1
 71
     2
 72
     1
 73
     1
 90
        2
 40
-0.6
 41
30.0
 62
     5
 63
     7
 74
     1
 91
        0
 64
     7
 65
   257
 75
     1
175
     1
 42
1.0
 92
        0
 66
   257
 43
1.0
 76
     1
 77
     6
 78
     2
 67
     7
 79
     5
170
     0
171
     0
290
     0
174
     0
 93
       13
 44
0.0
173
     0
291
     1
 45
0.0
1001
ACAD
1000
AcDbSavedByObjectVersion
1070
     0
  0
VISUALSTYLE
  5
F2
102
{ACAD_XDICTIONARY
360
7B39
102
}
102
{ACAD_REACTORS
330
EF
102
}
330
EF
100
AcDbVisualStyle
  2
Gouraud
 70
     2
 71
     2
 72
     2
 73
     1
 90
        2
 40
-0.6
 41
30.0
 62
     5
 63
     7
 74
     0
 91
        0
 64
     7
 65
   257
 75
     1
175
     1
 42
1.0
 92
        0
 66
     7
 43
1.0
 76
     1
 77
     6
 78
     2
 67
     7
 79
     5
170
     0
171
     0
290
     0
174
     0
 93
       13
 44
0.0
173
     0
291
     1
 45
0.0
1001
ACAD
1000
AcDbSavedByObjectVersion
1070
     0
  0
VISUALSTYLE
  5
F3
102
{ACAD_XDICTIONARY
360
7B3B
102
}
102
{ACAD_REACTORS
330
EF
102
}
330
EF
100
AcDbVisualStyle
  2
GouraudWithEdges
 70
     3
 71
     2
 72
     2
 73
     1
 90
        2
 40
-0.6
 41
30.0
 62
     5
 63
     7
 74
     1
 91
        0
 64
     7
 65
   257
 75
     1
175
     1
 42
1.0
 92
        0
 66
   257
 43
1.0
 76
     1
 77
     6
 78
     2
 67
     7
 79
     5
170
     0
171
     0
290
     0
174
     0
 93
       13
 44
0.0
173
     0
291
     1
 45
0.0
1001
ACAD
1000
AcDbSavedByObjectVersion
1070
     0
  0
VISUALSTYLE
  5
F7
102
{ACAD_XDICTIONARY
360
7B43
102
}
102
{ACAD_REACTORS
330
EF
102
}
330
EF
100
AcDbVisualStyle
  2
Hidden
 70
     6
 71
     1
 72
     2
 73
     2
 90
        0
 40
-0.6
 41
-30.0
 62
     5
 63
     7
 74
     2
 91
        2
 64
     7
 65
   257
 75
     2
175
     1
 42
40.0
 92
        0
 66
   257
 43
1.0
 76
     1
 77
     6
 78
     2
 67
     7
 79
     3
170
     0
171
     0
290
     0
174
     0
 93
        1
 44
0.0
173
     0
291
     0
 45
0.0
1001
ACAD
1000
AcDbSavedByObjectVersion
1070
     0
  0
VISUALSTYLE
  5
1E4
102
{ACAD_XDICTIONARY
360
7B57
102
}
102
{ACAD_REACTORS
330
EF
102
}
330
EF
100
AcDbVisualStyle
  2
JitterOff
 70
    20
 71
     2
 72
     2
 73
     0
 90
        0
 40
-0.6
 41
-30.0
 62
     5
 63
     7
 74
     1
 91
        4
 64
     7
 65
   257
 75
     1
175
     1
 42
1.0
 92
       10
 66
     7
 43
1.0
 76
     1
 77
     6
 78
     2
 67
     7
 79
     5
170
     0
171
     0
290
     0
174
     0
 93
        1
 44
0.0
173
     0
291
     1
 45
0.0
1001
ACAD
1000
AcDbSavedByObjectVersion
1070
     0
  0
VISUALSTYLE
  5
FD
102
{ACAD_XDICTIONARY
360
7B4F
102
}
102
{ACAD_REACTORS
330
EF
102
}
330
EF
100
AcDbVisualStyle
  2
Linepattern
 70
    14
 71
     2
 72
     2
 73
     1
 90
        0
 40
-0.6
 41
-30.0
 62
     5
 63
     7
 74
     1
 91
        4
 64
     7
 65
   257
 75
     7
175
     7
 42
1.0
 92
        8
 66
     7
 43
1.0
 76
     1
 77
     6
 78
     2
 67
     7
 79
     5
170
     0
171
     0
290
     0
174
     0
 93
        1
 44
0.0
173
     0
291
     1
 45
0.0
1001
ACAD
1000
AcDbSavedByObjectVersion
1070
     0
  0
VISUALSTYLE
  5
1E5
102
{ACAD_XDICTIONARY
360
7B59
102
}
102
{ACAD_REACTORS
330
EF
102
}
330
EF
100
AcDbVisualStyle
  2
OverhangOff
 70
    21
 71
     2
 72
     2
 73
     0
 90
        0
 40
-0.6
 41
-30.0
 62
     5
 63
     7
 74
     1
 91
        4
 64
     7
 65
   257
 75
     1
175
     1
 42
1.0
 92
        9
 66
     7
 43
1.0
 76
     1
 77
     6
 78
     2
 67
     7
 79
     5
170
     0
171
     0
290
     0
174
     0
 93
        1
 44
0.0
173
     0
291
     1
 45
0.0
1001
ACAD
1000
AcDbSavedByObjectVersion
1070
     0
  0
VISUALSTYLE
  5
F9
102
{ACAD_XDICTIONARY
360
7B47
102
}
102
{ACAD_REACTORS
330
EF
102
}
330
EF
100
AcDbVisualStyle
  2
Realistic
 70
     8
 71
     2
 72
     2
 73
     0
 90
        2
 40
-0.6
 41
30.0
 62
     5
 63
     7
 74
     0
 91
        0
 64
     7
 65
   257
 75
     1
175
     1
 42
1.0
 92
        8
 66
   257
 43
1.0
 76
     1
 77
     6
 78
     2
 67
     7
 79
     3
170
     0
171
     0
290
     0
174
     0
 93
       13
 44
0.0
173
     0
291
     0
 45
0.0
1001
ACAD
1000
AcDbSavedByObjectVersion
1070
     0
  0
VISUALSTYLE
  5
1F3
102
{ACAD_XDICTIONARY
360
7B65
102
}
102
{ACAD_REACTORS
330
EF
102
}
330
EF
100
AcDbVisualStyle
  2
Shaded
 70
    27
 71
     2
 72
     2
 73
     1
 90
        2
 40
-0.6
 41
30.0
 62
     5
 63
     7
 74
     0
 91
        4
 64
     7
 65
   257
 75
     1
175
     1
 42
1.0
 92
        8
 66
   257
 43
1.0
 76
     1
 77
     6
 78
     2
 67
     8
 79
     3
170
     0
171
     0
290
     0
174
     0
 93
        5
 44
0.0
173
     0
291
     0
 45
0.0
1001
ACAD
1000
AcDbSavedByObjectVersion
1070
     0
  0
VISUALSTYLE
  5
1F2
102
{ACAD_XDICTIONARY
360
7B63
102
}
102
{ACAD_REACTORS
330
EF
102
}
330
EF
100
AcDbVisualStyle
  2
Shaded with edges
 70
    26
 71
     2
 72
     2
 73
     1
 90
        2
 40
-0.6
 41
30.0
 62
     5
 63
     7
 74
     1
 91
        2
 64
     7
 65
   257
 75
     2
175
     1
 42
1.0
 92
        8
 66
   257
 43
1.0
 76
     1
 77
     6
 78
     2
 67
     7
 79
     3
170
     0
171
     0
290
     0
174
     0
 93
        5
 44
0.0
173
     0
291
     0
 45
0.0
1001
ACAD
1000
AcDbSavedByObjectVersion
1070
     0
  0
VISUALSTYLE
  5
1EF
102
{ACAD_XDICTIONARY
360
7B5D
102
}
102
{ACAD_REACTORS
330
EF
102
}
330
EF
100
AcDbVisualStyle
  2
Shades of Gray
 70
    23
 71
     2
 72
     2
 73
     3
 90
        0
 40
-0.6
 41
-30.0
 62
     5
 63
     7
 74
     2
 91
        2
 64
     7
 65
     7
 75
     1
175
     1
 42
40.0
 92
        8
 66
     7
 43
1.0
 76
     1
 77
     6
 78
     2
 67
     7
 79
     3
170
     0
171
     0
290
     0
174
     0
 93
        1
 44
0.0
173
     0
291
     0
 45
0.0
1001
ACAD
1000
AcDbSavedByObjectVersion
1070
     0
  0
VISUALSTYLE
  5
1F0
102
{ACAD_XDICTIONARY
360
7B5F
102
}
102
{ACAD_REACTORS
330
EF
102
}
330
EF
100
AcDbVisualStyle
  2
Sketchy
 70
    24
 71
     1
 72
     2
 73
     2
 90
        0
 40
-0.6
 41
-30.0
 62
     5
 63
     7
 74
     2
 91
        2
 64
     7
 65
     7
 75
     1
175
     1
 42
40.0
 92
       11
 66
     7
 43
1.0
 76
     1
 77
     6
 78
     2
 67
     7
 79
     6
170
     0
171
     0
290
     0
174
     0
 93
        1
 44
0.0
173
     0
291
     0
 45
0.0
1001
ACAD
1000
AcDbSavedByObjectVersion
1070
     0
  0
VISUALSTYLE
  5
FC
102
{ACAD_XDICTIONARY
360
7B4D
102
}
102
{ACAD_REACTORS
330
EF
102
}
330
EF
100
AcDbVisualStyle
  2
Thicken
 70
    13
 71
     2
 72
     2
 73
     1
 90
        0
 40
-0.6
 41
-30.0
 62
     5
 63
     7
 74
     1
 91
        4
 64
     7
 65
   257
 75
     1
175
     1
 42
1.0
 92
       12
 66
     7
 43
1.0
 76
     1
 77
     6
 78
     2
 67
     7
 79
     5
170
     0
171
     0
290
     0
174
     0
 93
        1
 44
0.0
173
     0
291
     1
 45
0.0
1001
ACAD
1000
AcDbSavedByObjectVersion
1070
     0
  0
VISUALSTYLE
  5
F6
102
{ACAD_XDICTIONARY
360
7B41
102
}
102
{ACAD_REACTORS
330
EF
102
}
330
EF
100
AcDbVisualStyle
  2
Wireframe
 70
     5
 71
     0
 72
     2
 73
     0
 90
        0
 40
-0.6
 41
-30.0
 62
     5
 63
     7
 74
     1
 91
        4
 64
     7
 65
   257
 75
     1
175
     1
 42
1.0
 92
        0
 66
   257
 43
1.0
 76
     1
 77
     6
 78
     2
 67
     7
 79
     3
170
     0
171
     0
290
     0
174
     0
 93
        1
 44
0.0
173
     0
291
     0
 45
0.0
1001
ACAD
1000
AcDbSavedByObjectVersion
1070
     0
  0
VISUALSTYLE
  5
1F1
102
{ACAD_XDICTIONARY
360
7B61
102
}
102
{ACAD_REACTORS
330
EF
102
}
330
EF
100
AcDbVisualStyle
  2
X-Ray
 70
    25
 71
     2
 72
     2
 73
     1
 90
        1
 40
0.5
 41
-30.0
 62
     5
 63
     7
 74
     1
 91
        0
 64
     7
 65
   257
 75
     1
175
     1
 42
1.0
 92
        8
 66
     7
 43
1.0
 76
     1
 77
     6
 78
     2
 67
     7
 79
     3
170
     0
171
     0
290
     0
174
     0
 93
       13
 44
0.0
173
     0
291
     0
 45
0.0
1001
ACAD
1000
AcDbSavedByObjectVersion
1070
     0
  0
DICTIONARYVAR
  5
146
102
{ACAD_REACTORS
330
5E
102
}
330
5E
100
DictionaryVariables
280
     0
  1
1:1
  0
DICTIONARYVAR
  5
259
102
{ACAD_REACTORS
330
5E
102
}
330
5E
100
DictionaryVariables
280
     0
  1
3.500000
  0
DICTIONARYVAR
  5
25A
102
{ACAD_REACTORS
330
5E
102
}
330
5E
100
DictionaryVariables
280
     0
  1
acadiso.lin
  0
DICTIONARYVAR
  5
145
102
{ACAD_REACTORS
330
5E
102
}
330
5E
100
DictionaryVariables
280
     0
  1
STANDARD
  0
DICTIONARYVAR
  5
84
102
{ACAD_REACTORS
330
5E
102
}
330
5E
100
DictionaryVariables
280
     0
  1
STANDARD
  0
DICTIONARYVAR
  5
227
102
{ACAD_REACTORS
330
5E
102
}
330
5E
100
DictionaryVariables
280
     0
  1
Metric50
  0
DICTIONARYVAR
  5
228
102
{ACAD_REACTORS
330
5E
102
}
330
5E
100
DictionaryVariables
280
     0
  1
Metric50
  0
DICTIONARYVAR
  5
5F
102
{ACAD_REACTORS
330
5E
102
}
330
5E
100
DictionaryVariables
280
     0
  1
2
  0
DICTIONARYVAR
  5
63
102
{ACAD_REACTORS
330
5E
102
}
330
5E
100
DictionaryVariables
280
     0
  1
1
  0
DICTIONARYVAR
  5
7AD6
102
{ACAD_REACTORS
330
5E
102
}
330
5E
100
DictionaryVariables
280
     0
  1
0
  0
DICTIONARYVAR
  5
1AE
102
{ACAD_REACTORS
330
5E
102
}
330
5E
100
DictionaryVariables
280
     0
  1
0
  0
DICTIONARYVAR
  5
1AF
102
{ACAD_REACTORS
330
5E
102
}
330
5E
100
DictionaryVariables
280
     0
  1
0
  0
DICTIONARYVAR
  5
7AD4
102
{ACAD_REACTORS
330
5E
102
}
330
5E
100
DictionaryVariables
280
     0
  1
2
  0
DICTIONARYVAR
  5
7AD3
102
{ACAD_REACTORS
330
5E
102
}
330
5E
100
DictionaryVariables
280
     0
  1
1
  0
DICTIONARYVAR
  5
7B26
102
{ACAD_REACTORS
330
5E
102
}
330
5E
100
DictionaryVariables
280
     0
  1
80.000000
  0
DICTIONARYVAR
  5
7B25
102
{ACAD_REACTORS
330
5E
102
}
330
5E
100
DictionaryVariables
280
     0
  1
5.000000
  0
DICTIONARYVAR
  5
7AD5
102
{ACAD_REACTORS
330
5E
102
}
330
5E
100
DictionaryVariables
280
     0
  1
127
  0
DICTIONARYVAR
  5
7B27
102
{ACAD_REACTORS
330
5E
102
}
330
5E
100
DictionaryVariables
280
     0
  1
2
  0
DICTIONARY
  5
7B69
330
21C
100
AcDbDictionary
280
     1
281
     1
  3
ACAD_XREC_ROUNDTRIP
360
7B6A
  0
DICTIONARY
  5
7B2E
330
D3
100
AcDbDictionary
280
     1
281
     1
  3
ACAD_XREC_ROUNDTRIP
360
7B2F
  0
DICTIONARY
  5
7B30
330
D7
100
AcDbDictionary
280
     1
281
     1
  3
ACAD_XREC_ROUNDTRIP
360
7B31
  0
DICTIONARY
  5
7B2B
330
22
100
AcDbDictionary
280
     1
281
     1
  3
ACAD_XREC_ROUNDTRIP
360
7B2C
  0
DICTIONARY
  5
1F9
330
ED
100
AcDbDictionary
280
     1
281
     1
  3
ACAD_XREC_ROUNDTRIP
360
7B33
  3
FBXASSET
360
1FA
  0
DICTIONARY
  5
1F7
330
EC
100
AcDbDictionary
280
     1
281
     1
  3
ACAD_XREC_ROUNDTRIP
360
7B32
  3
FBXASSET
360
1F8
  0
DICTIONARY
  5
173
330
EE
100
AcDbDictionary
280
     1
281
     1
  3
ACAD_XREC_ROUNDTRIP
360
7B34
  3
BUMPTILE
360
175
  3
DIFFUSETILE
360
174
  3
FBXASSET
360
1FB
  3
OPACITYTILE
360
176
  3
REFLECTIONTILE
360
177
  0
DICTIONARY
  5
7B55
330
12E
100
AcDbDictionary
280
     1
281
     1
  3
ACAD_XREC_ROUNDTRIP
360
7B56
  0
DICTIONARY
  5
7B67
330
21A
100
AcDbDictionary
280
     1
281
     1
  3
ACAD_XREC_ROUNDTRIP
360
7B68
  0
DICTIONARY
  5
162
330
7F
100
AcDbDictionary
280
     1
281
     1
  3
ACAD_ROUNDTRIP_2008_TABLESTYLE_CELLSTYLEMAP
360
7B28
  3
ACAD_XREC_ROUNDTRIP
360
7B2D
  0
DICTIONARY
  5
7B3F
330
F5
100
AcDbDictionary
280
     1
281
     1
  3
ACAD_XREC_ROUNDTRIP
360
7B40
  0
DICTIONARY
  5
7B3D
330
F4
100
AcDbDictionary
280
     1
281
     1
  3
ACAD_XREC_ROUNDTRIP
360
7B3E
  0
DICTIONARY
  5
7B4B
330
FB
100
AcDbDictionary
280
     1
281
     1
  3
ACAD_XREC_ROUNDTRIP
360
7B4C
  0
DICTIONARY
  5
7B53
330
FF
100
AcDbDictionary
280
     1
281
     1
  3
ACAD_XREC_ROUNDTRIP
360
7B54
  0
DICTIONARY
  5
7B45
330
F8
100
AcDbDictionary
280
     1
281
     1
  3
ACAD_XREC_ROUNDTRIP
360
7B46
  0
DICTIONARY
  5
7B49
330
FA
100
AcDbDictionary
280
     1
281
     1
  3
ACAD_XREC_ROUNDTRIP
360
7B4A
  0
DICTIONARY
  5
7B5B
330
1E6
100
AcDbDictionary
280
     1
281
     1
  3
ACAD_XREC_ROUNDTRIP
360
7B5C
  0
DICTIONARY
  5
7B51
330
FE
100
AcDbDictionary
280
     1
281
     1
  3
ACAD_XREC_ROUNDTRIP
360
7B52
  0
DICTIONARY
  5
7B35
330
F0
100
AcDbDictionary
280
     1
281
     1
  3
ACAD_XREC_ROUNDTRIP
360
7B36
  0
DICTIONARY
  5
7B37
330
F1
100
AcDbDictionary
280
     1
281
     1
  3
ACAD_XREC_ROUNDTRIP
360
7B38
  0
DICTIONARY
  5
7B39
330
F2
100
AcDbDictionary
280
     1
281
     1
  3
ACAD_XREC_ROUNDTRIP
360
7B3A
  0
DICTIONARY
  5
7B3B
330
F3
100
AcDbDictionary
280
     1
281
     1
  3
ACAD_XREC_ROUNDTRIP
360
7B3C
  0
DICTIONARY
  5
7B43
330
F7
100
AcDbDictionary
280
     1
281
     1
  3
ACAD_XREC_ROUNDTRIP
360
7B44
  0
DICTIONARY
  5
7B57
330
1E4
100
AcDbDictionary
280
     1
281
     1
  3
ACAD_XREC_ROUNDTRIP
360
7B58
  0
DICTIONARY
  5
7B4F
330
FD
100
AcDbDictionary
280
     1
281
     1
  3
ACAD_XREC_ROUNDTRIP
360
7B50
  0
DICTIONARY
  5
7B59
330
1E5
100
AcDbDictionary
280
     1
281
     1
  3
ACAD_XREC_ROUNDTRIP
360
7B5A
  0
DICTIONARY
  5
7B47
330
F9
100
AcDbDictionary
280
     1
281
     1
  3
ACAD_XREC_ROUNDTRIP
360
7B48
  0
DICTIONARY
  5
7B65
330
1F3
100
AcDbDictionary
280
     1
281
     1
  3
ACAD_XREC_ROUNDTRIP
360
7B66
  0
DICTIONARY
  5
7B63
330
1F2
100
AcDbDictionary
280
     1
281
     1
  3
ACAD_XREC_ROUNDTRIP
360
7B64
  0
DICTIONARY
  5
7B5D
330
1EF
100
AcDbDictionary
280
     1
281
     1
  3
ACAD_XREC_ROUNDTRIP
360
7B5E
  0
DICTIONARY
  5
7B5F
330
1F0
100
AcDbDictionary
280
     1
281
     1
  3
ACAD_XREC_ROUNDTRIP
360
7B60
  0
DICTIONARY
  5
7B4D
330
FC
100
AcDbDictionary
280
     1
281
     1
  3
ACAD_XREC_ROUNDTRIP
360
7B4E
  0
DICTIONARY
  5
7B41
330
F6
100
AcDbDictionary
280
     1
281
     1
  3
ACAD_XREC_ROUNDTRIP
360
7B42
  0
DICTIONARY
  5
7B61
330
1F1
100
AcDbDictionary
280
     1
281
     1
  3
ACAD_XREC_ROUNDTRIP
360
7B62
  0
XRECORD
  5
7B6A
102
{ACAD_REACTORS
330
7B69
102
}
330
7B69
100
AcDbXrecord
280
     1
102
DISPLAYNAME
  1
Metric50
102
FLAGS
 90
        0
  0
XRECORD
  5
7B2F
102
{ACAD_REACTORS
330
7B2E
102
}
330
7B2E
100
AcDbXrecord
280
     1
102
SHADEPLOT
 70
     0
102
SHADEPLOTRESLEVEL
 70
     2
102
SHADEPLOTCUSTOMDPI
 70
   300
  0
XRECORD
  5
7B31
102
{ACAD_REACTORS
330
7B30
102
}
330
7B30
100
AcDbXrecord
280
     1
102
SHADEPLOT
 70
     0
102
SHADEPLOTRESLEVEL
 70
     2
102
SHADEPLOTCUSTOMDPI
 70
   300
  0
XRECORD
  5
7B2C
102
{ACAD_REACTORS
330
7B2B
102
}
330
7B2B
100
AcDbXrecord
280
     1
102
SHADEPLOT
 70
     0
102
SHADEPLOTRESLEVEL
 70
     2
102
SHADEPLOTCUSTOMDPI
 70
   300
  0
XRECORD
  5
7B33
102
{ACAD_REACTORS
330
1F9
102
}
330
1F9
100
AcDbXrecord
280
     1
102
MATERIAL
148
0.0
149
0.0
149
0.0
 93
        0
 94
       63
282
     0
 72
     1
 77
     1
171
     1
175
     1
179
     1
273
     0
  0
XRECORD
  5
1FA
102
{ACAD_REACTORS
330
1F9
102
}
330
1F9
100
AcDbXrecord
280
     1
 70
     1
 90
429727718
  1
D62C5603-E3A1-4AEA-B7FB-FE5D8D0755AF
310
504B03040A0000080000CC70623B3DEE336E79000000790000001B0000006175746F6465736B2D64657369676E2D7061636B6167652E786D6C3C3F786D6C2076657273696F6E3D22312E302220656E636F64696E673D227574662D3822203F3E3C666F726D6174733E3C666F726D61743E687474703A2F2F736368656D612E
310
6175746F6465736B2E636F6D2F64657369676E2D7061636B6167652F323030393C2F666F726D61743E3C2F666F726D6174733E504B0304140006080800CC70623BD486FD9CA0000000F4000000130000005B436F6E74656E745F54797065735D2E786D6C7D8EC10E82300C865F65E91D8A1E8C310C0EEA1BF002731658846E
310
D98AC1B77784ABF1D8FE5FBFBF75BBCE937A534CCEB38643598122B6FEE978D0B0485F9C41B54DDD7D022595594E1A469170414C76A4D9A4D207E29CF43ECE46F218070CC6BECC4078ACAA135ACF422C856C0E68EA1BF5669944DDD7BCDE7B1F8E415D77AECB980613C2E4AC91FC167A2B244592486606FC29C8FD7F045B9A
310
EF7053A7E60B504B0304140006080800CC70623B853B8169EB0000007C01000008000000636F72652E786D6C8D90416EC3201045AF62CDB6C206821CC7C244919D9CA01740401C94182C03558F5F9C3852BBEB6A467FFE9B197D7EFC9E1EC5975982F5AE035262288C535E5B377690E21535501C055FBC8FBF6C503839990E
310
5619041F179FE64D52DE45E362569DD7661365082642A11EB9E920A89B99642953CC8E702F67A9EE7234257977194EC9EAE275C4EABCCF5EAD5940D4AC6F0E35A568B8F43562CD7046CD199FD07E60174276A7BE677B5EADB0E0D14EEFFB6A31321A0D82627C4084204C3F096B71DD52F6819B16635EADF63F509AF53FA164
310
5DDCD1EDDD17164090FCC8732078B56691CB33A85CD7DCC40F504B0304140006080800CC70623B55019EA25F0000007C00000007000000636E782E786D6C4DCB3B0E80201045D1AD90E915ED2CF8AC45050C11660C8261F98AB1B07AC9C97D42D718D865D3E909258CFD00CCE24AC6E326A164D74DC0B4128928FF32603847
310
2BA13128B1252AC747C6BAB984FC68F0B87FE8960A5C09FE86CFB69FBA01504B0304140006080800CC70623BDBABAAF470010000D40300000C0000006662782F636F72652E786D6CC553D16E823014FD95A6AF4B694182CC941A83FA05FB810A9511A125A5257EFE2E82712ECEB8A7F100CD39F7F69E734AF9FADC366850B6
310
AF8DCE7018308C942E4C59EB2AC3DE1D498AD15A706B8CFB56869196ADCAF00863C12B6B7C374385D14E6907A836A59A41D9F7CA615434B0C8705F7CAA5606D23BA8E84F41278B93AC54100640439DE0BDB320004D43C63716C7C399D30917DCFBBA9CD9BA8469F5B156168B24CED3F7248AC8769F27244EB73B92EED8862C
310
B7F13E0C179B3C8F979C8ECD82BBBABDAA2BAC924E9558448CBD9330242CFA08E3154B5651FCC6D215639C8EE5774DBE2B5F6CF2B5768B68963BB5F5588420E442FC700B1139D4CB01F450C1E918227C2E09DF070D8140C84E1E9AAB8F1340832A9CB13130A5F1376A908D57309505ECF2A0DF179C4E9D30F5B239B87E3823
310
7A79C6F31DE1A8A5AEC08474B03C7837EAE4938639B44E5932B833D2C6B6B279CDC613877FA26EE21F4A2A4C63EC7F29A2F301D1F9F7A0E37D145F504B0304140006080800CC70623B9C113CC27E0000009D0000000B0000006662782F636E782E786D6C4DCCDF0A83201C86E15B91DFB94BFB330DD428C8FB886521330DA7
310
6397BF1A1DECE883878F57749FCDA1B7892F1BBC047A23808C7F84D9FA55424E0BE6803A256208E9EF06C84F9B91703228B1C690F78B66B34CD9A5439DF5CF0BFBF65E35BCA1B8D6A5C6F540381E886698B5741C695F9503EBA150A2F8958E3DC3EA0B504B0304140006080800CC70623B7DF2F77C2A010000120200003100
310
00006662782F41393633353835312D344632462D344230382D423046372D3739314545314133324237412F636F72652E786D6C8D51DB8EC22014FC15C2939B0D2DB4B45643319AE817EC0F6041255A68B86CFCFC856D4D76DF7CE190393373060EDB3DC707F856CE6B6B7A480A0C81328395DA5C7B18C3057510EC3873D686
310
3F34088C18550F330C39BB3A1BA7051AAC09CA84841A2BD5020AEF55806078A44B0FFD7053A328440C89E1EFC52486BBB8AA8214A99D789CF9E05200300FC927E4FB4D5B375D43103D5527440FB843077C5AA3F5861C8F645F5787F59E95B390B318B55CE45AA638FAA2957BD7248B390B7A7CC51F9C124149C82B8C378810
310
84AB2F42B7B8DD56F413775B8C5999E9FF4471926F8AA236A1AE96B8B3CC434E5839373893369E1FAF30EA395917409EB7F26AF8801C171837A4A6AC9C89E9F9C9B1A58BA30FD6A5EF5DDDCF894B9AD9B6A59C957943A9FCAE2FD5BC4DFE03504B0304140006080800CC70623BAD7543B64E01000033030000300000006662
310
782F41393633353835312D344632462D344230382D423046372D3739314545314133324237412F636E782E786D6CD593CD6EC32010845F0571AD6CE3D48AD20813A9873E410FBD12D82434182C7EAAE6EDBB2424CD25871E7B41D6EC30B3FA84F9E67BB2E40B4234DE8DB46F1925E094D7C6ED479AD3AE5951B2113C789FEE
310
6C943839C1488B4C05DF079FE72A69D8C96C13AAD6B8631503449F83828872B949AC57D26200B826A308D316B4064D6E46FCDA41C05550DC9E483A00797BFD207EFB092A45DE9514C1BBD22178396BD39D891265658C238DEA00936C654E5E433CB65A26D9F6EDB5EBC14EBF49A45CB856E66048291F6939A9A81BB5C89177
310
38143CA680F4AA299D66A042CEB3354A2684DC9D8D178FE0D9B8B41CAAD720F880EE7EF93C0C18769E099ECC04D5A102C8049A8A05632F4DDF376CF1DE0F6BB65C2F8627B65A33C6BB62177CEBBDAD973006829F89F22E814B54F4BC2BE347F8AA8F681390B50FA73F804400B5F542E796F19FF974E7F78DB802FE05E20750
310
4B0304140006080800CC70623BE75B7789680500003C100000340000006662782F41393633353835312D344632462D344230382D423046372D3739314545314133324237412F6F626A656374732E786D6CAD575B8F9B3818FD2B887D06C22499CB8AA1CA655245D5B455A356FB305264C061D8018C6C3393D95FBFC7600890
310
A4CD5EF210B0B1BFEBF98E3F7B1FF6596ABC522E1296DF9BAE3D320D9A872C4AF2F8DE2CE5CEBA358D0FBEC719939D65A691938CDE9B6ADAF4BD98B3B2D05311DD91329583D9D5FC0F438434A7A611A644887B5384CF34233629258BA878B12322891DEFF6B66BD70BFB62634E8AE781D082709A4B588AF91C528CDA28B73F
310
1C998EEF39EABBEFA97FBD6A7C7E9553F9D3D79FE442923C3C523610337627CB87ABE99D359D4CC6D6E4FACAB5E6ABF9D2726FC6A3C5F56271377BB88362213924694B38DD99FE47C48627A1E7D49F5A8BB5E1A74C0A599ED3B0F21F1E56366B89112D681E218F0915D0D6F17AD41FBA2A369DCF6335D62ABBD39779D5DDD1
310
11D4D8DE3CBB96B2E04FB8202E41051754A1AA8E8F76B4C6DFE810B580B1547F4B84911149794252234D024EF8BBE963A95AE27B3D310A9D5C215C7960FAEE415ED75694C6AFB17BCACA5D99A60A9AA65F217B0BFC53292ACB92BF283FAD0D3621576592CB5BED907C2FA8E9DF794E35E97BEA31BED21FEB401ABB94C44839
310
DCACBF0E1C5DA8DA5B2F4DFFD32AD86F543D9E565E7056502E157C00AD2671CD534549AB752FCA9CDA00677A313F04E51B22FF19E57B300579E3C97EB29F682D92935CEC18CF901B7B54FD8C51F362B56FC72FE0B3C1EAE335EDCCBF5AEC39ADB17DC238973F804BA5E6F6BFE7AF1FB32E523BE9F3BD571418E3631DCA4D48
310
5250CF639223210A9446CA30052EDF057BD35F8329C1ECD84552BF0DC8D18BE7BCE23BFE6BD960AB4A7DE79923A103BEBD80F911CBAA2C60DB19B01CF164A5583B772EE6D3FFA56666CBCDA74DC97724A48F9A58967497E489C4D979006FD7A05E227A1EBDD0F737C623387A9C844D3709995625106D157315F8B8392CD4E0
310
A0B9A720C4BE9829CEF37EA1E13111214D53925356365ADA634861B52519DD27A00AEB808EAF0628E6F435519D446F45CF2C9CF5214F0A15B2F6D06B79DA3EE3CBF7F56780D2F4E7EF73A0F5E5B02A38D07DC852C6B7C1FBB6664213E0C39E3EBA7FF4E1AD23EA2829407C85E586727488B751B2DB9502BC7B228A3FD68B6E
310
A65A22397E690AA8D158D7E404EC8CDA235CC3B7D1898680131CEC2CDF2638C65196279577750F15884AEE19F94199155B92B13297978469D4F8D358DF0AEF7631E28DC8F0D9F437D5D39A83B2231A1D52D543813A824EF8D44BCFF2FA6A31BD1E8DAD87F1CCB526B3879935BF59CDADD5C37479BB1CDD4CA7B3556B516589
310
EF352754B706114D9C885EC9131DE6EFEB43D99AFE2391C2F958179413D7CFEF6B1B6DB1E7600F00DE6E5C67454A339A4BA2E0FBA85ED26F045D454F463DBFCE484C2F90F2E5E3666003662ED8F755951A7D1BECD5B30B550B2785C8E7320B7292A4838DDA71BBC863ED7613CAF659337A3354231D4FF4A182A54904C2898C
310
98B28C4AD0CE056CCF332A80986E571EE9DBC305BB5FEB7E509220A58D25CF042D712A806AC0AD0C657FDEF80D2D9CEAA2EE4D1C76F60BFE74219A06527D6F82DF6412526107381E55E353090704D085B52408A8913C4ED159D79BDA71BB4BC506F4831350EB6F975CD22D69BF7AC49B91A2C0A9DDA3D5CA36AD20FC478E37
310
E61844E2352865EBCB61A275A65283CAAA9DD27703B4102F5AF51EF5F573B75CBB5AD38BC845F7A49F82A0966A49C2E3EA5EA0ECD326CD965F1DB402C6FA8B51A4658C5C5E2EC9E214602E55810345408596591009A82E7E7FFACA19EEA299B14A0081A705CB3296EBC14CDF658DCD336EA6D1136881AAEB87B81AB9EE53D5
310
F5EB8BC8362082DA24122F98680A4E7930C01A0079749CEA14382A0783E5EBA5A10F8C098456A03D6A4AEB6BB881E2513747552A5DB22C7EDAF83BD5528081A365F7FF06504B0304140006080000CC70623B000000000000000000000000350000006662782F41393633353835312D344632462D344230382D423046372D37
310
39314545314133324237412F76657274696365732E62696E504B0304140006080800CC70623BF270F1330600000004000000360000006662782F41393633353835312D344632462D344230382D423046372D3739314545314133324237412F747269616E676C65732E62696E636660600000504B0304140006080000CC7062
310
3B000000000000000000000000370000006662782F41393633353835312D344632462D344230382D423046372D3739314545314133324237412F617474726962757465732E62696E504B0304140006080800CC70623B08DA0BD19000000041010000360000006662782F41393633353835312D344632462D344230382D4230
310
46372D3739314545314133324237412F6469726563746F72792E786D6C858F410AC3201045AF22B36F53E9A60B35CBEEBAE80D244E44489C6234F4F835464A48035D0DF398FF9F8AF63D0E6CC63039F212F8F9020C7D47C6792B21C5FE7403D62A1188E2E60C98D7234A5830286103A55745067B9D86B8A3CF9C7F90C11DE6
310
07FB144396D7B6A82D282E9A152AD114D5EF2CB866EEE831B8EEA07A7BB5A8D7D61A2BAAEB7FD5F70921FF497D00504B0304140006080800CC70623BEDD1DC58FD000000A00100003B0000006662782F41393633353835312D344632462D344230382D423046372D3739314545314133324237412F7265736F75726365732F
310
636F72652E786D6C8D504B6E833010BD0A9A6D65B00922041947112427E8052C33A156828DFCA97AFC9A40A576D7CDCCE87D344F8F9FBFE667F689CE6B6B3A6039850C8DB2A336530731DC4903D95970676DF82583CCC8193B5861107C72362E3BA4AC096842428D1D7107A5F7182053CF7474E0D507CE32973124857FE48B
310
540F3961CEF244279DE03EB81420DB9EAC1384436FA353E879B1B182C7A8C75DA3C7F453DF353A1075D537A7BA6464B8F535A99AE14A9A2BBD90E350DD183B5CFABE3AF262350B1EF4FC9351399401471025A527C218A1E53BAB5A5AB765F5469B96525EACF23FA6B88CFF34456DC2A1DCE36E360F82A5202F42F062ED2BAD
310
579969AFDD8A6F504B010214000A0000080000CC70623B3DEE336E79000000790000001B00000000000000000000000000000000006175746F6465736B2D64657369676E2D7061636B6167652E786D6C504B01021400140006080800CC70623BD486FD9CA0000000F40000001300000000000000000000000000B20000005B
310
436F6E74656E745F54797065735D2E786D6C504B01021400140006080800CC70623B853B8169EB0000007C010000080000000000000000000000000083010000636F72652E786D6C504B01021400140006080800CC70623B55019EA25F0000007C000000070000000000000000000000000094020000636E782E786D6C504B
310
01021400140006080800CC70623BDBABAAF470010000D40300000C00000000000000000000000000180300006662782F636F72652E786D6C504B01021400140006080800CC70623B9C113CC27E0000009D0000000B00000000000000000000000000B20400006662782F636E782E786D6C504B01021400140006080800CC70
310
623B7DF2F77C2A010000120200003100000000000000000000000000590500006662782F41393633353835312D344632462D344230382D423046372D3739314545314133324237412F636F72652E786D6C504B01021400140006080800CC70623BAD7543B64E010000330300003000000000000000000000000000D2060000
310
6662782F41393633353835312D344632462D344230382D423046372D3739314545314133324237412F636E782E786D6C504B01021400140006080800CC70623BE75B7789680500003C10000034000000000000000000000000006E0800006662782F41393633353835312D344632462D344230382D423046372D3739314545
310
314133324237412F6F626A656374732E786D6C504B01021400140006080000CC70623B0000000000000000000000003500000000000000000000000000280E00006662782F41393633353835312D344632462D344230382D423046372D3739314545314133324237412F76657274696365732E62696E504B01021400140006
310
080800CC70623BF270F133060000000400000036000000000000000000000000007B0E00006662782F41393633353835312D344632462D344230382D423046372D3739314545314133324237412F747269616E676C65732E62696E504B01021400140006080000CC70623B0000000000000000000000003700000000000000
310
000000000000D50E00006662782F41393633353835312D344632462D344230382D423046372D3739314545314133324237412F617474726962757465732E62696E504B01021400140006080800CC70623B08DA0BD1900000004101000036000000000000000000000000002A0F00006662782F41393633353835312D344632
310
462D344230382D423046372D3739314545314133324237412F6469726563746F72792E786D6C504B01021400140006080800CC70623BEDD1DC58FD000000A00100003B000000000000000000000000000E1000006662782F41393633353835312D344632462D344230382D423046372D3739314545314133324237412F7265
310
736F75726365732F636F72652E786D6C504B0506000000000E000E0080040000641100000000
  0
XRECORD
  5
7B32
102
{ACAD_REACTORS
330
1F7
102
}
330
1F7
100
AcDbXrecord
280
     1
102
MATERIAL
148
0.0
149
0.0
149
0.0
 93
        0
 94
       63
282
     0
 72
     1
 77
     1
171
     1
175
     1
179
     1
273
     0
  0
XRECORD
  5
1F8
102
{ACAD_REACTORS
330
1F7
102
}
330
1F7
100
AcDbXrecord
280
     1
 70
     1
 90
429727718
  1
30362254-06B7-45E0-A893-8CFA70E3D6BC
310
504B03040A0000080000CC70623B3DEE336E79000000790000001B0000006175746F6465736B2D64657369676E2D7061636B6167652E786D6C3C3F786D6C2076657273696F6E3D22312E302220656E636F64696E673D227574662D3822203F3E3C666F726D6174733E3C666F726D61743E687474703A2F2F736368656D612E
310
6175746F6465736B2E636F6D2F64657369676E2D7061636B6167652F323030393C2F666F726D61743E3C2F666F726D6174733E504B0304140006080800CC70623BD486FD9CA0000000F4000000130000005B436F6E74656E745F54797065735D2E786D6C7D8EC10E82300C865F65E91D8A1E8C310C0EEA1BF002731658846E
310
D98AC1B77784ABF1D8FE5FBFBF75BBCE937A534CCEB38643598122B6FEE978D0B0485F9C41B54DDD7D022595594E1A469170414C76A4D9A4D207E29CF43ECE46F218070CC6BECC4078ACAA135ACF422C856C0E68EA1BF5669944DDD7BCDE7B1F8E415D77AECB980613C2E4AC91FC167A2B244592486606FC29C8FD7F045B9A
310
EF7053A7E60B504B0304140006080800CC70623B1EC5D7A3EB0000007C01000008000000636F72652E786D6C8D90416EC3201045AF82665B6103C6756C6122AB4D4ED00B204C5C94182C03558F5F9C3852BBEB6A467FFE9B197D71FC9E6FE8CBACC17AD7032D0820E3B41FAD9B7A48F1820F808E52ACDEC75F36404ECDA687
310
4D0629A6D5A76597B477D1B89855E747B38B2A041301E95B6E7A08FAD3CCAA50296647B8168BD2573599823EBB0CA76447F43862C7BCCF5EAC59410E4DDD9C7973C2755553CCCFA4C603E3040F1565ED3B1FDE4E432BCA0D9622DAF9795FAF464533826484B498524CD807E51D79ED187F21878E10516EF63F505AC67F42C9
310
BA58B1FDDD071640D2FCC87D2045B96591CB3DA85CB7DCE40F504B0304140006080800CC70623B55019EA25F0000007C00000007000000636E782E786D6C4DCB3B0E80201045D1AD90E915ED2CF8AC45050C11660C8261F98AB1B07AC9C97D42D718D865D3E909258CFD00CCE24AC6E326A164D74DC0B4128928FF32603847
310
2BA13128B1252AC747C6BAB984FC68F0B87FE8960A5C09FE86CFB69FBA01504B0304140006080800CC70623B8C9102E971010000D40300000C0000006662782F636F72652E786D6CC5535B6E833010BC8AE5DF0A6C08340F1947A84D4ED00B38C6A128602363A31CBFCB234A53A551FA553EC09AD9F5CE8C31DB9E9B1AF5CA
310
7695D1198E428A91D2D214952E33ECDD315861B4E5CC1AE3BE9561A445A3323CC098B3D21ADFCE9034DA29ED00D5A6503328BA4E398C640D8B0C77F253352214DE4145770A5B214FA2546114020D759C75CE8200340D19DE981F0F6746269C33EFAB6266AB02A655C74A59CCF365BADC27CB5D902ED22848F6340DF238A141
310
BE88E2F57B92BFEDF23523433367AE6A2EEAA455C2A902F398D2751045018D3FA264435F3771F242571B4A1919CA6F9A7C5B3CD9E42BED16F12C776AEB308F40C848FC700B1139D4891EF410CEC810227CC6846F8386402064270EF5C5C709A05E49676C024C61FC95EA45ED154CA5211D1FF4FB8291A913A68E9B83EBBB33
310
E2A7673CDE118E5AE8124C0807CB8377834E366998436B950D7A7746DAD846D4CFD978E0F04FD455FC5D49D2D4C6FE9722321F10997F0F32DC47FE05504B0304140006080800CC70623BFFEA85907E0000009D0000000B0000006662782F636E782E786D6C4DCCD10A83201886E15B91FFDC95D95A811AB6F23E625948A6C3
310
E9D8E5AF46073BFAE0E1E365ED67B3E8ADC3CB78C7815C7240DA3DFC64DCC221C519D7805AC182F7F1EF06C88D9BE6703008B6049F9E274D7A1E938DBB5AE3D6131B2589BA0D3D965551E0B2EA732C9B9A624AAEB41E3A557677029960D9AFB4EF11165F504B0304140006080800CC70623B4FEEA4082C0100001202000031
310
0000006662782F39464131463745442D413632322D343644302D413938332D3331353338454246344243312F636F72652E786D6C8D515B6EC32010BC0AE2AB55850DD871ED0813254D72825EC00192A2C460F1A872FC42ED48ED5F7E00CDCECCCEB26C731F6FE05B39AFADE921293004CA082BB5B9F43086336A21D870E6AC
310
0D7F68109861543DCC30E4ECE26C9C164858139409093556AA051CBC570102714B8F1E7AF1A5C6A11862480C7F2DA6415C878B2A4891CA89C7990F2E050073937C42DE1DB7E4F87ED8A36D4329AA9B3D46DBAEAD504556557BD81DEBDD0761E52CE42C462D17B996298E3E6BE59E35C962CE821E1FF18553435012728A7187
310
0841987E927A8D9B35ADDF70BBC6989599FE4F1427F9A4286A132ABAC49D651EF234CD5CE04CDA78BA3DC2A8FB645D00B9DF8B57E215725C60BCA2A463E54C4CE327C7A65E1C7DB02E7DEFCBF594B864C5CA6CDBD49C957943E9FA5D5FBAF336F90F504B0304140006080800CC70623BAD7543B64E01000033030000300000
310
006662782F39464131463745442D413632322D343644302D413938332D3331353338454246344243312F636E782E786D6CD593CD6EC32010845F0571AD6CE3D48AD20813A9873E410FBD12D82434182C7EAAE6EDBB2424CD25871E7B41D6EC30B3FA84F9E67BB2E40B4234DE8DB46F1925E094D7C6ED479AD3AE5951B2113C
310
789FEE6C943839C1488B4C05DF079FE72A69D8C96C13AAD6B8631503449F83828872B949AC57D26200B826A308D316B4064D6E46FCDA41C05550DC9E483A00797BFD207EFB092A45DE9514C1BBD22178396BD39D891265658C238DEA00936C654E5E433CB65A26D9F6EDB5EBC14EBF49A45CB856E66048291F6939A9A81BB5
310
C8917738143CA680F4AA299D66A042CEB3354A2684DC9D8D178FE0D9B8B41CAAD720F880EE7EF93C0C18769E099ECC04D5A102C8049A8A05632F4DDF376CF1DE0F6BB65C2F8627B65A33C6BB62177CEBBDAD973006829F89F22E814B54F4BC2BE347F8AA8F681390B50FA73F804400B5F542E796F19FF974E7F78DB802FE05
310
E207504B0304140006080800CC70623B16AB87BA640500003C100000340000006662782F39464131463745442D413632322D343644302D413938332D3331353338454246344243312F6F626A656374732E786D6CAD575B6FA33818FD2B887DE6924B3BED8A326A92B68A663B534DD4D13E548A0C38942D60649B369D5FBFC7
310
600890A493BDE42160637FD7F31D7FF63E6FB3D478A55C242CBF3247B66B1A340F5994E4F19559CA8D75611A9F7D8F33263BCB4C232719BD32D5B4E97B316765A1A722BA21652A07B3B7B33F0D11D29C9A46981221AE4C113ED38CD8A4942CA2E2C58E882476BCD9DA23BB5ED8171B73523C0F841684D35CC252CCE79062D4
310
468DFA43D7747CCF51DF7D4FFDEB5593E3AB9CCA9FBEFE241792E4E19EB28198C968BAB8199F5D5A67D3E9C49A9E8F47D6EC76B6B0469F26EEFC7C3EBFBCBEB98462213924694B38DD98FE1D62C393D073EA4FADC5DAF04326852CCF6958F90F0F2B9BB5C48816348F90C7840A68EB78EDF68723159BCEE7891A6B95DDE9D3
310
BCEAEEE8086A6C6F9E5D4B59F0175C10A7A0820BAA5055C7473B5AE3CFDD452D602CD5DF12616444529E90D448938013FE6EFA58AA96F85E4F8C42275708571E98FE6827AF6B2B4AE3D7D83D64E5A64C53054DD3AF90BD06FEA9149565C94FCA0F6B834DC85599E4F2423B24DF0B6AFA979E534DFA9E7A4CC6FA631D486393
310
921829879BF5D781A373557BCB85E97FB90DB62B558F8795179C15944B051F40AB495CF35451D26A4727654E6D8033BD98EF82F21D91FF8AF2DD9982BCF1643BDD4EB516C9492E368C67C88DED563FC36D5EACF66DFF057C3658BDBFA69DF9578B3DA735B64F18C7F20770A9D45CFCF7FCF563D6456A277DBEF78A02637CA2
310
43B90A490AEAB94F72244481D24819A6C0E59B606BFA4B3025981DBB48EAB701D97BF19C577CC77F2D1B6C55A9EF3C732474C0B727303F625995056C3B02963D9EAC146BE78EC5FCEC7FA999EBC5EACBAAE41B12D27B4D2C0BBA49F244E2ECDC81B76B502F113D8F5EE8FB1BE3111CDD4FC2AA9B844CAB1288B68AB90A7CDC
310
1C166AB0D3DC5310625FCC14E779BFD0709F8890A629C9292B1B2DED31A4B0DA928CEE135085754027E3018A397D4D5427D15BD1330B677DC8934285AC3DF45A9EB68FF8F2B8FC0A509AFEECFD0FF2DE25CC6047F7214B195F07EFEB9A094D800F7BFAE8FED187B78EA8A3A400F115961BCAD1215E47C966530AF0EE8128FE
310
58CEBB996A8964FFA529A046635D9353B0336A8F700DDF46271A024E70B0B37C9DE01847591E54DED53D54202AB947E4076556AC49C6CA5C9E1226B7F1A7B1BE15DEED62C41B91E1B3E9AFAAA735036547343A925075041DF0A9979E893B391F8FCFA6967B3EFB644DCF6E5CEBFAE272625DCC6FAF3FB93793C5F90CE1EF57
310
407342756B10D1C489E8953CD1617E5CEECAD6F4EF8914CE5D5D504E5C3F1F9736DA62CFC11E00BCDDB8CC8A9466349744C1F75EBDA4DF09BA8A9E8C7A7E9991989E20E5DBDD6A6003664ED8F7A04A8DBE0DF6EAD9B9AA858342E47399053949D2C146EDB85DE4B176BB0965FBAC19BD19AA918E27FA50C1D22402E144464C
310
59462568E704B6E71915404CB72B8FF4EDE184DDAF753F284990D2C6926782963815403548A70C657FDEF80D2D9CEAA2AE4C1C76F60BFE74219A06527D6582DF6412526107381E55E353090704D085B52408D0933C4ED159D79BDA71BB4BC506F4831350EB6F979CD22D69BF7AC49B91A2C0A9DDA3D5CA36AD20FC478E37E6
310
1844E2352865EBCB6EA275A652E3836BE04EFB400BF1A2556F515F1FBB35B2AB35BD889C744FFA1004B5544B121E57F70215746DD2F5E2C1412B602CBF19455AC6C8E5E9922C4E01E65215385004546899059180EAFCF7A707CE7017CD8CDB0410789AB32C63B91E5CEBBBACB17AC6CD347A022D5075FD106377347AAABA7E
310
7D11590744509B44E205134DC1290F06580320F78E537D3D73540E06CB970B431F185308AD40BBD794D6D77003C5A36E8EAA54BA64597CD8F83BD552A080A365F7FF06504B0304140006080000CC70623B000000000000000000000000350000006662782F39464131463745442D413632322D343644302D413938332D3331
310
353338454246344243312F76657274696365732E62696E504B0304140006080800CC70623BF270F1330600000004000000360000006662782F39464131463745442D413632322D343644302D413938332D3331353338454246344243312F747269616E676C65732E62696E636660600000504B0304140006080000CC70623B
310
000000000000000000000000370000006662782F39464131463745442D413632322D343644302D413938332D3331353338454246344243312F617474726962757465732E62696E504B0304140006080800CC70623B08DA0BD19000000041010000360000006662782F39464131463745442D413632322D343644302D413938
310
332D3331353338454246344243312F6469726563746F72792E786D6C858F410AC3201045AF22B36F53E9A60B35CBEEBAE80D244E44489C6234F4F835464A48035D0DF398FF9F8AF63D0E6CC63039F212F8F9020C7D47C6792B21C5FE7403D62A1188E2E60C98D7234A5830286103A55745067B9D86B8A3CF9C7F90C11DE607
310
FB144396D7B6A82D282E9A152AD114D5EF2CB866EEE831B8EEA07A7BB5A8D7D61A2BAAEB7FD5F70921FF497D00504B0304140006080800CC70623B0D6EF93BFE000000A00100003B0000006662782F39464131463745442D413632322D343644302D413938332D3331353338454246344243312F7265736F75726365732F63
310
6F72652E786D6C8D50596E833010BD0A9ADFCA60B334011947A8694ED00B586642AC041B79A97AFC9A40A5F6AF3F33A3B7689E1E3F7DCD8FEC139DD7D6F4C0720A191A65476DA61E62B892236427C19DB5E1970C322367EC618541F0C9D9B8EC90B226A009093576C41D94DE63804C3DD2D18357379C652E63480A7FCF17A9
310
EE72C29CE5894E3AC17D702940B63D59270887DE46A7D0F36263058F518FBB468FE9A7BE6A7420864373B8D4873369AA8691FA421B3294352543C5CAF65C0F6FEF43CB8BD52C78D0F34F46E550061C419494B6843142CB0F5677F4B52BEB177AEC28E5C52AFF638ACBF84F53D42654E51E77B379102C05791282176B5F693D
310
CB4C7BED567C03504B010214000A0000080000CC70623B3DEE336E79000000790000001B00000000000000000000000000000000006175746F6465736B2D64657369676E2D7061636B6167652E786D6C504B01021400140006080800CC70623BD486FD9CA0000000F40000001300000000000000000000000000B20000005B
310
436F6E74656E745F54797065735D2E786D6C504B01021400140006080800CC70623B1EC5D7A3EB0000007C010000080000000000000000000000000083010000636F72652E786D6C504B01021400140006080800CC70623B55019EA25F0000007C000000070000000000000000000000000094020000636E782E786D6C504B
310
01021400140006080800CC70623B8C9102E971010000D40300000C00000000000000000000000000180300006662782F636F72652E786D6C504B01021400140006080800CC70623BFFEA85907E0000009D0000000B00000000000000000000000000B30400006662782F636E782E786D6C504B01021400140006080800CC70
310
623B4FEEA4082C0100001202000031000000000000000000000000005A0500006662782F39464131463745442D413632322D343644302D413938332D3331353338454246344243312F636F72652E786D6C504B01021400140006080800CC70623BAD7543B64E010000330300003000000000000000000000000000D5060000
310
6662782F39464131463745442D413632322D343644302D413938332D3331353338454246344243312F636E782E786D6C504B01021400140006080800CC70623B16AB87BA640500003C1000003400000000000000000000000000710800006662782F39464131463745442D413632322D343644302D413938332D3331353338
310
454246344243312F6F626A656374732E786D6C504B01021400140006080000CC70623B0000000000000000000000003500000000000000000000000000270E00006662782F39464131463745442D413632322D343644302D413938332D3331353338454246344243312F76657274696365732E62696E504B01021400140006
310
080800CC70623BF270F133060000000400000036000000000000000000000000007A0E00006662782F39464131463745442D413632322D343644302D413938332D3331353338454246344243312F747269616E676C65732E62696E504B01021400140006080000CC70623B0000000000000000000000003700000000000000
310
000000000000D40E00006662782F39464131463745442D413632322D343644302D413938332D3331353338454246344243312F617474726962757465732E62696E504B01021400140006080800CC70623B08DA0BD190000000410100003600000000000000000000000000290F00006662782F39464131463745442D413632
310
322D343644302D413938332D3331353338454246344243312F6469726563746F72792E786D6C504B01021400140006080800CC70623B0D6EF93BFE000000A00100003B000000000000000000000000000D1000006662782F39464131463745442D413632322D343644302D413938332D3331353338454246344243312F7265
310
736F75726365732F636F72652E786D6C504B0506000000000E000E0080040000641100000000
  0
XRECORD
  5
7B34
102
{ACAD_REACTORS
330
173
102
}
330
173
100
AcDbXrecord
280
     1
102
MATERIAL
148
0.0
149
0.0
149
0.0
 93
        0
 94
       63
282
     0
 72
     1
 77
     1
171
     1
175
     1
179
     1
273
     0
  0
XRECORD
  5
175
102
{ACAD_REACTORS
330
173
102
}
330
173
100
AcDbXrecord
280
     1
270
     1
271
     1
  0
XRECORD
  5
174
102
{ACAD_REACTORS
330
173
102
}
330
173
100
AcDbXrecord
280
     1
270
     1
271
     1
  0
XRECORD
  5
1FB
102
{ACAD_REACTORS
330
173
102
}
330
173
100
AcDbXrecord
280
     1
 70
     0
 90
1673772943
  1
ECE7A1D2-D628-4531-984C-D00F80459256
310
504B03040A0000080000CC70623B3DEE336E79000000790000001B0000006175746F6465736B2D64657369676E2D7061636B6167652E786D6C3C3F786D6C2076657273696F6E3D22312E302220656E636F64696E673D227574662D3822203F3E3C666F726D6174733E3C666F726D61743E687474703A2F2F736368656D612E
310
6175746F6465736B2E636F6D2F64657369676E2D7061636B6167652F323030393C2F666F726D61743E3C2F666F726D6174733E504B0304140006080800CC70623BD486FD9CA0000000F4000000130000005B436F6E74656E745F54797065735D2E786D6C7D8EC10E82300C865F65E91D8A1E8C310C0EEA1BF002731658846E
310
D98AC1B77784ABF1D8FE5FBFBF75BBCE937A534CCEB38643598122B6FEE978D0B0485F9C41B54DDD7D022595594E1A469170414C76A4D9A4D207E29CF43ECE46F218070CC6BECC4078ACAA135ACF422C856C0E68EA1BF5669944DDD7BCDE7B1F8E415D77AECB980613C2E4AC91FC167A2B244592486606FC29C8FD7F045B9A
310
EF7053A7E60B504B0304140006080800CC70623BD9DDAED0EC0000007C01000008000000636F72652E786D6C8D90416EC3201045AF82665B61836D9CD8C2444DD39CA01740405C94182C03558F5F9C3852BBEB6A467FFE9B197D7EF89E6EE8CB2CC17A37002D0820E394D7D68D03A478C17B4007C117EFE32F1B20272733C0
310
2A83E0E3E2D3BC49CABB685CCCAAF3DA6CA20CC14440EA969B0182FA34932C648AD911AEC52CD5558EA6A0CF2EC329598D1E47ACCEFBECC59A050463A7EA5833865FEBDD0E37353BE3EE8DBDE3F6786A48D375FBF6CC78B9C282473B3DEFABC5C86834888A900E538A49F5419B9EB47DD5BC907D4F082F57FB1F28CDFA9F50
310
B22ED6D5F6EE030B20687EE43E10BC5CB3C8E51E54AE6B6EE207504B0304140006080800CC70623B55019EA25F0000007C00000007000000636E782E786D6C4DCB3B0E80201045D1AD90E915ED2CF8AC45050C11660C8261F98AB1B07AC9C97D42D718D865D3E909258CFD00CCE24AC6E326A164D74DC0B4128928FF326038
310
472BA13128B1252AC747C6BAB984FC68F0B87FE8960A5C09FE86CFB69FBA01504B0304140006080800CC70623BA24EB22D72010000D40300000C0000006662782F636F72652E786D6CC5535B6E833010BC8AE5DF0A6C5E49888CA3A6694ED00B38E05014B091B1518EDFE511A5A9D228FD2A1F60CDEC7A67C6986DCE4D8D7A
310
69BA4AAB0C073EC548AA5C17952A33ECECD15B61B4E1CC686DBF9561A44423333CC098B3D268D7CE50AE9595CA02AA74216750749DB418E5352C32DCE59FB211BE70162ABA93DF8AFC244AE9073ED050C759670D0840D390E18DF9F1706664C23973AE2A66B62A605A75ACA4C13C4976E1364A12EF355A2EBD384AF65EFA96
310
BC7B8BED2EA6719AAE16FB8491A199335B351775B991C2CA02F390D2D40B028F861F41BCA68B7518BFD0D59A524686F29B26D7164F36B94AD9289CE54E6D1DE6010819891F6E21228B3AD1831EC219194284CF98F06DD01008846CC5A1BEF83801D4CBDC6A1303536877A57A513B0953A94FC707FDBE6064EA84A9E3E6E0FA
310
EE8CF0E9198F7784A316AA0413C2C2F2E0ECA0934D1AE6D05A69BCDE9E91D2A611F573361E38FC1375157F5752AE6B6DFE4B11990F88CCBF0719EE23FF02504B0304140006080800CC70623B408A7D3B7C0000009D0000000B0000006662782F636E782E786D6C4DCCD10A83201886E15B91FFDC552A92A0064DBC8F581632
310
D3703A76F9ABD1C18E3E78F878E5F0D9027ABBFCF2292AE86E2D20171F69F6715550CB827B40839639A5F2770314A7CD293819B45C73AAFB45B35BA61ACAA1C1C7E7855C58C15BC331339661262CC762340413D68D77DA5B42298546CBE6573AF60CEB2F504B0304140006080800CC70623B449FB9BD290100001202000031
310
0000006662782F36394639363044362D344446342D343946362D394244322D3234314243333846323333332F636F72652E786D6C8D515B6EC32010BC0AE22B55850D98B871848994463E412FE002495162B07854397EA176A4F62F3F2C9A9D991D587EB84F37F0AD7D30CEF6905418026DA553C65E7A98E219ED203808EE9D
310
8B7F6810D871D23D2C3014FCE25D9A57483A1BB58D19B54EE9151C43D0110279CB971E06F9A5A7B11A53CC8C70ADE6515EC78BAE4895DB992778883E0700CB907242D17643D7E2538BD869608875438BBAE38922CAC8F1BDD90DB4691A5E2F42C153326A951B95E398B3D1FE599322163C9AE9115F7A3D46ADA0A018778810
310
84E907617BDCEE297BC5BB3DC6BC2EF47FA234AB2745C9D8D8D035EE220B50105E2F0DC1954B9FB747187D9F9D8FA0CCDB042D5FA0C015C65B42DF78BD10F3F3B363CB56C7109DCFDFBBB97E662ED92EB62D13BC2E1BCAE5777DB9966D8A1F504B0304140006080800CC70623BAD7543B64E01000033030000300000006662
310
782F36394639363044362D344446342D343946362D394244322D3234314243333846323333332F636E782E786D6CD593CD6EC32010845F0571AD6CE3D48AD20813A9873E410FBD12D82434182C7EAAE6EDBB2424CD25871E7B41D6EC30B3FA84F9E67BB2E40B4234DE8DB46F1925E094D7C6ED479AD3AE5951B2113C789FEE
310
6C943839C1488B4C05DF079FE72A69D8C96C13AAD6B8631503449F83828872B949AC57D26200B826A308D316B4064D6E46FCDA41C05550DC9E483A00797BFD207EFB092A45DE9514C1BBD22178396BD39D891265658C238DEA00936C654E5E433CB65A26D9F6EDB5EBC14EBF49A45CB856E66048291F6939A9A81BB5C89177
310
38143CA680F4AA299D66A042CEB3354A2684DC9D8D178FE0D9B8B41CAAD720F880EE7EF93C0C18769E099ECC04D5A102C8049A8A05632F4DDF376CF1DE0F6BB65C2F8627B65A33C6BB62177CEBBDAD973006829F89F22E814B54F4BC2BE347F8AA8F681390B50FA73F804400B5F542E796F19FF974E7F78DB802FE05E20750
310
4B0304140006080800CC70623B8D05915C650500003B100000340000006662782F36394639363044362D344446342D343946362D394244322D3234314243333846323333332F6F626A656374732E786D6CAD575B6FA33814FE2B887D06429276DA1565D4266D158D3A339A6846FB502932E050B66023DB74D2FDF5FB190C01
310
9276B2973C046C8ECFF53B17071F77456EBD502133CEAE6CDF9DD81665314F32965ED995DA3A17B6F5310C04E7AA47665B8C14F4CAD6DB7618A48257A5D94AE89654B91AEDDEDDFC61C998326A5B714EA4BCB265FC440BE2924AF184CA6737218AB8E976E7FA6E4338649B0A523E8D98964450A6A029F619B8588D52FE7039
310
B1BD30F0F4F730D0FF866AF6369557DB33949F31A9088B0F848DD8CCFCF9F2767A76E99CCDE733677E3EF59D9BBB9BA5E37F984D16E78BC5E5F5ED25044B25C0C96822E8D60EEFE11B91C581D77CEA34368A1F5329E68CD1B8B61F16D63A1B8E092D294B10C78C4A48EB593D192E7DED9BDEE7995E1B91FDEDD3ACEA9FE831
310
6A756F9F7D4D79F4274C90A7A04248AA51D5F8C718DAE06FB2F75AC4796EBE65D22A88A22223B995679120E2D50E41AA49C260C046A35368846B0BECD0DFF3EBEB8AD4F835768F69B9ADF25C43D30E6B646F807FAA64AD59F61715C7A54127C4AACA98BA3006A9D792DAE165E0D59B61A01FB3A9F9D838D2DAE62445C86166
310
F37564E842E7DE6A69879FEEA2DD5AE7E371E1A5E025154AC307D06A03D73EB5978C58FFA4C8E9033066E0F3BD53BEC1F39F91BE7B55103791EDE6BBB991A2046172CB4581D8B893FA674DDA17A77B3B7C413D1B511FD2743BFF8A38F03A658705E3ADF8015C3A3417FF3D7E439FF591DA0B5F18BC20C1B8981957AE6392A3
310
F43C640C01D1A0B4728E2DD4F26DB4B3C3152A252A3B4E913CEC1C72F012782FF88EFF8637AA552DBEF76408E8A8DE9E50F9E1CB3A2DA0DB1B6039A893B56063DC5B3E3FFB5F72E67AB9FEB4AEC496C4F4C1149625DD662C53E89D7BF0F6151A046260D1337DFDC94502430F83B0EE07A130A224BCAD7DAE1D9FB6CD422FF6
310
920702629C4BB9AE79C12F243C6432A6794E18E5552BA56B431AAB5D91317302B2B071E86C3A42B1A02F999E24061403B5D0EB639195DA655DD3EBEAB4FB862DDF579F014AD0E73C22F99E28DA57FB98E75C6CA2D74D53086D600F4786E0FE3144B771A8A7B900F03594DB8A633CBC49B2EDB69228BB479CF863B5E807AAAB
310
23872F6DFEB4129B949CA33823F58830E86D65621E10047D9DB34D862E8EAC3C2ABC2F7B2C40D67CDFE01F5545B92105AF983AC54D93D69E56FB8E797F88913F898A9FEC705D3F9D1B54EC8426FB500D40A03BD0119B06E1B95DDC7EB8F6975367793EBD70E66733DFB9BC982F9CE564727731999F5D4ECFCE3B8D6A4DC2A0
310
6D50FD148437D110834A64C6CDDF57FBACB5C307A2A477DFE4939736CFEF2B175371E0E10CF0DD1D5C15654E0BCA14D1E87DD02FF93782A162C0A3D95F1524A52770F972BF1EE9809D13CE7DD599467F8ECE9ADD85CE85A34CD45355448C64F9E8A031DC2D596ACC6E5DD93D9B82DE2EF5CAF81363A8E47996A0DE24564A79
310
4115AACE09C55E14540231FDA13C319787134EBF34E3A022514E5B4D9E0826E25C02D5805B15ABE1BEF51B26383D445DD9E875EE33FE4C22DA16427D65A3BCA92CA6D28DD01DF5DC53330704308475351050232CCD31583787BA75774AFB06E5070DD0C8EF484E19968C5D83BA5B90B244D31E54D55A372320FE4786B7EA58
310
44E135AA5467CB7EA333A61683CC6A8C3257034C10CF46F40EF9F5BE59BE5BD30C3C72D235E95D10345C1D45445A5F0BB47E46A5EBE5570F9380B5FA629579952296A773720405982B9DE04011506178964401AA8BDF1FBF0A8EAB6861DD6580C0E38217056766716DAEB2D6FA0917D3E4116581EADB879C4E7CFFB11EFACD
310
3D641311495D92C8676CB409A72D18610D803CE8A626049E8EC1887CB5B44CC39883690DDA8399B4B9855B481E7D71D4A9D22F96E5BB73BF5793020C02137BF837504B0304140006080000CC70623B000000000000000000000000350000006662782F36394639363044362D344446342D343946362D394244322D32343142
310
43333846323333332F76657274696365732E62696E504B0304140006080800CC70623BF270F1330600000004000000360000006662782F36394639363044362D344446342D343946362D394244322D3234314243333846323333332F747269616E676C65732E62696E636660600000504B0304140006080000CC70623B0000
310
00000000000000000000370000006662782F36394639363044362D344446342D343946362D394244322D3234314243333846323333332F617474726962757465732E62696E504B0304140006080800CC70623B08DA0BD19000000041010000360000006662782F36394639363044362D344446342D343946362D394244322D
310
3234314243333846323333332F6469726563746F72792E786D6C858F410AC3201045AF22B36F53E9A60B35CBEEBAE80D244E44489C6234F4F835464A48035D0DF398FF9F8AF63D0E6CC63039F212F8F9020C7D47C6792B21C5FE7403D62A1188E2E60C98D7234A5830286103A55745067B9D86B8A3CF9C7F90C11DE607FB14
310
4396D7B6A82D282E9A152AD114D5EF2CB866EEE831B8EEA07A7BB5A8D7D61A2BAAEB7FD5F70921FF497D00504B0304140006080800CC70623BCA768048FE000000A00100003B0000006662782F36394639363044362D344446342D343946362D394244322D3234314243333846323333332F7265736F75726365732F636F72
310
652E786D6C8D50596E833010BD0A9ADFCA60D600328E9AA639412F609909B1126CE4A5EAF16B0295DABFFECC8CDEA2797AECF8353F924FB44E193D409E5248504B332A3D0D10FC95B4901C39B3C6F85F3248B49871801506CE266BC2B243D2688FDA47549B11775038871E12F988C7004EDE7016A9083E2ADC3D5D84BC8B09
310
D33C8D74D471E6BC8D0192EDC93A815B742658898E651BCB59086ADC356A8C3FD555A1055ED7E7E254D615792D0F075295F585746FF53B694EE78A565DD736979A65AB9933AFE69F8CD2A2F038022F28ED489E135A7CE4554F9BBEA85E68DB53CAB255FEC71496F19FA6A0B42F8B3DEE6673C0F318E4497096AD7DC5F52C33
310
EEB55BFE0D504B010214000A0000080000CC70623B3DEE336E79000000790000001B00000000000000000000000000000000006175746F6465736B2D64657369676E2D7061636B6167652E786D6C504B01021400140006080800CC70623BD486FD9CA0000000F40000001300000000000000000000000000B20000005B436F
310
6E74656E745F54797065735D2E786D6C504B01021400140006080800CC70623BD9DDAED0EC0000007C010000080000000000000000000000000083010000636F72652E786D6C504B01021400140006080800CC70623B55019EA25F0000007C000000070000000000000000000000000095020000636E782E786D6C504B0102
310
1400140006080800CC70623BA24EB22D72010000D40300000C00000000000000000000000000190300006662782F636F72652E786D6C504B01021400140006080800CC70623B408A7D3B7C0000009D0000000B00000000000000000000000000B50400006662782F636E782E786D6C504B01021400140006080800CC70623B
310
449FB9BD290100001202000031000000000000000000000000005A0500006662782F36394639363044362D344446342D343946362D394244322D3234314243333846323333332F636F72652E786D6C504B01021400140006080800CC70623BAD7543B64E010000330300003000000000000000000000000000D20600006662
310
782F36394639363044362D344446342D343946362D394244322D3234314243333846323333332F636E782E786D6C504B01021400140006080800CC70623B8D05915C650500003B10000034000000000000000000000000006E0800006662782F36394639363044362D344446342D343946362D394244322D32343142433338
310
46323333332F6F626A656374732E786D6C504B01021400140006080000CC70623B0000000000000000000000003500000000000000000000000000250E00006662782F36394639363044362D344446342D343946362D394244322D3234314243333846323333332F76657274696365732E62696E504B010214001400060808
310
00CC70623BF270F13306000000040000003600000000000000000000000000780E00006662782F36394639363044362D344446342D343946362D394244322D3234314243333846323333332F747269616E676C65732E62696E504B01021400140006080000CC70623B00000000000000000000000037000000000000000000
310
00000000D20E00006662782F36394639363044362D344446342D343946362D394244322D3234314243333846323333332F617474726962757465732E62696E504B01021400140006080800CC70623B08DA0BD190000000410100003600000000000000000000000000270F00006662782F36394639363044362D344446342D
310
343946362D394244322D3234314243333846323333332F6469726563746F72792E786D6C504B01021400140006080800CC70623BCA768048FE000000A00100003B000000000000000000000000000B1000006662782F36394639363044362D344446342D343946362D394244322D3234314243333846323333332F7265736F
310
75726365732F636F72652E786D6C504B0506000000000E000E0080040000621100000000
  0
XRECORD
  5
176
102
{ACAD_REACTORS
330
173
102
}
330
173
100
AcDbXrecord
280
     1
270
     1
271
     1
  0
XRECORD
  5
177
102
{ACAD_REACTORS
330
173
102
}
330
173
100
AcDbXrecord
280
     1
270
     1
271
     1
  0
XRECORD
  5
7B56
102
{ACAD_REACTORS
330
7B55
102
}
330
7B55
100
AcDbXrecord
280
     1
102
ACAD_ROUNDTRIP_2012_MLEADER_STYLE
298
     1
  0
XRECORD
  5
7B68
102
{ACAD_REACTORS
330
7B67
102
}
330
7B67
100
AcDbXrecord
280
     1
102
DISPLAYNAME
  1
Metric50
102
FLAGS
 90
        0
  0
CELLSTYLEMAP
  5
7B28
102
{ACAD_REACTORS
330
162
102
}
330
162
100
AcDbCellStyleMap
 90
        3
300
CELLSTYLE
  1
TABLEFORMAT_BEGIN
 90
        5
170
     1
 91
        0
 92
    32768
 62
   257
 93
        1
300
CONTENTFORMAT
  1
CONTENTFORMAT_BEGIN
 90
        0
 91
        0
 92
      512
 93
        0
300

 40
0.0
140
1.0
 94
        5
 62
     0
340
11
144
6.0
309
CONTENTFORMAT_END
171
     1
301
MARGIN
  1
CELLMARGIN_BEGIN
 40
1.5
 40
1.5
 40
1.5
 40
1.5
 40
4.5
 40
4.5
309
CELLMARGIN_END
 94
        6
 95
        1
302
GRIDFORMAT
  1
GRIDFORMAT_BEGIN
 90
        0
 91
        1
 62
     0
 92
       -2
340
14
 93
        0
 40
1.125
309
GRIDFORMAT_END
 95
        2
302
GRIDFORMAT
  1
GRIDFORMAT_BEGIN
 90
        0
 91
        1
 62
     0
 92
       -2
340
14
 93
        0
 40
1.125
309
GRIDFORMAT_END
 95
        4
302
GRIDFORMAT
  1
GRIDFORMAT_BEGIN
 90
        0
 91
        1
 62
     0
 92
       -2
340
14
 93
        0
 40
1.125
309
GRIDFORMAT_END
 95
        8
302
GRIDFORMAT
  1
GRIDFORMAT_BEGIN
 90
        0
 91
        1
 62
     0
 92
       -2
340
14
 93
        0
 40
1.125
309
GRIDFORMAT_END
 95
       16
302
GRIDFORMAT
  1
GRIDFORMAT_BEGIN
 90
        0
 91
        1
 62
     0
 92
       -2
340
14
 93
        0
 40
1.125
309
GRIDFORMAT_END
 95
       32
302
GRIDFORMAT
  1
GRIDFORMAT_BEGIN
 90
        0
 91
        1
 62
     0
 92
       -2
340
14
 93
        0
 40
1.125
309
GRIDFORMAT_END
309
TABLEFORMAT_END
  1
CELLSTYLE_BEGIN
 90
        1
 91
        1
300
_TITLE
309
CELLSTYLE_END
300
CELLSTYLE
  1
TABLEFORMAT_BEGIN
 90
        5
170
     1
 91
        0
 92
        0
 62
   257
 93
        1
300
CONTENTFORMAT
  1
CONTENTFORMAT_BEGIN
 90
        0
 91
        0
 92
      512
 93
        0
300

 40
0.0
140
1.0
 94
        5
 62
     0
340
11
144
4.5
309
CONTENTFORMAT_END
171
     1
301
MARGIN
  1
CELLMARGIN_BEGIN
 40
1.5
 40
1.5
 40
1.5
 40
1.5
 40
4.5
 40
4.5
309
CELLMARGIN_END
 94
        6
 95
        1
302
GRIDFORMAT
  1
GRIDFORMAT_BEGIN
 90
        0
 91
        1
 62
     0
 92
       -2
340
14
 93
        0
 40
1.125
309
GRIDFORMAT_END
 95
        2
302
GRIDFORMAT
  1
GRIDFORMAT_BEGIN
 90
        0
 91
        1
 62
     0
 92
       -2
340
14
 93
        0
 40
1.125
309
GRIDFORMAT_END
 95
        4
302
GRIDFORMAT
  1
GRIDFORMAT_BEGIN
 90
        0
 91
        1
 62
     0
 92
       -2
340
14
 93
        0
 40
1.125
309
GRIDFORMAT_END
 95
        8
302
GRIDFORMAT
  1
GRIDFORMAT_BEGIN
 90
        0
 91
        1
 62
     0
 92
       -2
340
14
 93
        0
 40
1.125
309
GRIDFORMAT_END
 95
       16
302
GRIDFORMAT
  1
GRIDFORMAT_BEGIN
 90
        0
 91
        1
 62
     0
 92
       -2
340
14
 93
        0
 40
1.125
309
GRIDFORMAT_END
 95
       32
302
GRIDFORMAT
  1
GRIDFORMAT_BEGIN
 90
        0
 91
        1
 62
     0
 92
       -2
340
14
 93
        0
 40
1.125
309
GRIDFORMAT_END
309
TABLEFORMAT_END
  1
CELLSTYLE_BEGIN
 90
        2
 91
        1
300
_HEADER
309
CELLSTYLE_END
300
CELLSTYLE
  1
TABLEFORMAT_BEGIN
 90
        5
170
     1
 91
        0
 92
        0
 62
   257
 93
        1
300
CONTENTFORMAT
  1
CONTENTFORMAT_BEGIN
 90
        0
 91
        0
 92
      512
 93
        0
300

 40
0.0
140
1.0
 94
        2
 62
     0
340
11
144
4.5
309
CONTENTFORMAT_END
171
     1
301
MARGIN
  1
CELLMARGIN_BEGIN
 40
1.5
 40
1.5
 40
1.5
 40
1.5
 40
4.5
 40
4.5
309
CELLMARGIN_END
 94
        6
 95
        1
302
GRIDFORMAT
  1
GRIDFORMAT_BEGIN
 90
        0
 91
        1
 62
     0
 92
       -2
340
14
 93
        0
 40
1.125
309
GRIDFORMAT_END
 95
        2
302
GRIDFORMAT
  1
GRIDFORMAT_BEGIN
 90
        0
 91
        1
 62
     0
 92
       -2
340
14
 93
        0
 40
1.125
309
GRIDFORMAT_END
 95
        4
302
GRIDFORMAT
  1
GRIDFORMAT_BEGIN
 90
        0
 91
        1
 62
     0
 92
       -2
340
14
 93
        0
 40
1.125
309
GRIDFORMAT_END
 95
        8
302
GRIDFORMAT
  1
GRIDFORMAT_BEGIN
 90
        0
 91
        1
 62
     0
 92
       -2
340
14
 93
        0
 40
1.125
309
GRIDFORMAT_END
 95
       16
302
GRIDFORMAT
  1
GRIDFORMAT_BEGIN
 90
        0
 91
        1
 62
     0
 92
       -2
340
14
 93
        0
 40
1.125
309
GRIDFORMAT_END
 95
       32
302
GRIDFORMAT
  1
GRIDFORMAT_BEGIN
 90
        0
 91
        1
 62
     0
 92
       -2
340
14
 93
        0
 40
1.125
309
GRIDFORMAT_END
309
TABLEFORMAT_END
  1
CELLSTYLE_BEGIN
 90
        3
 91
        2
300
_DATA
309
CELLSTYLE_END
  0
XRECORD
  5
7B2D
102
{ACAD_REACTORS
330
162
102
}
330
162
100
AcDbXrecord
280
     1
102
ACAD_ROUNDTRIP_PRE2007_TABLESTYLE
 90
      512
 91
        0
  1

 92
      512
 93
        0
  2

 94
      512
 95
        0
  3

  0
XRECORD
  5
7B40
102
{ACAD_REACTORS
330
7B3F
102
}
330
7B3F
100
AcDbXrecord
280
     1
102
RTVSPost2010Prop28
280
     1
102
RTVSPost2010PropOp28
 70
     1
102
RTVSPost2010Prop29
280
     1
102
RTVSPost2010PropOp29
 70
     1
102
RTVSPost2010Prop30
280
     0
102
RTVSPost2010PropOp30
 70
     1
102
RTVSPost2010Prop31
280
     0
102
RTVSPost2010PropOp31
 70
     1
102
RTVSPost2010Prop32
280
     0
102
RTVSPost2010PropOp32
 70
     1
102
RTVSPost2010Prop33
280
     0
102
RTVSPost2010PropOp33
 70
     1
102
RTVSPost2010Prop34
280
     0
102
RTVSPost2010PropOp34
 70
     1
102
RTVSPost2010Prop35
280
     0
102
RTVSPost2010PropOp35
 70
     1
102
RTVSPost2010Prop36
280
     0
102
RTVSPost2010PropOp36
 70
     1
102
RTVSPost2010Prop37
 90
       50
102
RTVSPost2010PropOp37
 70
     1
102
RTVSPost2010Prop38
140
0.0
102
RTVSPost2010PropOp38
 70
     1
102
RTVSPost2010Prop39
140
1.0
102
RTVSPost2010PropOp39
 70
     1
102
RTVSPost2010Prop40
 90
        0
102
RTVSPost2010PropOp40
 70
     1
102
RTVSPost2010Prop41ColorIndex
 90
       18
102
RTVSPost2010Prop41ColorRGB
 90
        0
102
RTVSPost2010PropOp41
 70
     1
102
RTVSPost2010Prop42
 90
       50
102
RTVSPost2010PropOp42
 70
     1
102
RTVSPost2010Prop43
 90
        3
102
RTVSPost2010PropOp43
 70
     1
102
RTVSPost2010Prop44ColorIndex
 90
        5
102
RTVSPost2010Prop44ColorRGB
 90
      255
102
RTVSPost2010PropOp44
 70
     1
102
RTVSPost2010Prop45
280
     0
102
RTVSPost2010PropOp45
 70
     1
102
RTVSPost2010Prop46
 90
       50
102
RTVSPost2010PropOp46
 70
     1
102
RTVSPost2010Prop47
 90
       50
102
RTVSPost2010PropOp47
 70
     1
102
RTVSPost2010Prop48
 90
       50
102
RTVSPost2010PropOp48
 70
     1
102
RTVSPost2010Prop49
280
     0
102
RTVSPost2010PropOp49
 70
     1
102
RTVSPost2010Prop50
 90
       50
102
RTVSPost2010PropOp50
 70
     1
102
RTVSPost2010Prop51ColorIndex
 90
      256
102
RTVSPost2010Prop51ColorRGB
 90
-16777216
102
RTVSPost2010PropOp51
 70
     0
102
RTVSPost2010Prop52
140
1.0
102
RTVSPost2010PropOp52
 70
     0
102
RTVSPost2010Prop53
 90
        2
102
RTVSPost2010PropOp53
 70
     1
102
RTVSPost2010Prop54
  1
strokes_ogs.tif
102
RTVSPost2010PropOp54
 70
     1
102
RTVSPost2010Prop55
280
     0
102
RTVSPost2010PropOp55
 70
     1
102
RTVSPost2010Prop56
140
1.0
102
RTVSPost2010PropOp56
 70
     1
102
RTVSPost2010Prop57
140
1.0
102
RTVSPost2010PropOp57
 70
     1
102
RTVSPropertyOp0
 70
     1
102
RTVSPropertyOp1
 70
     1
102
RTVSPropertyOp2
 70
     1
102
RTVSPropertyOp3
 70
     1
102
RTVSPropertyOp4
 70
     1
102
RTVSPropertyOp5
 70
     1
102
RTVSPropertyOp6
 70
     1
102
RTVSPropertyOp7
 70
     1
102
RTVSPropertyOp8
 70
     1
102
RTVSPropertyOp9
 70
     1
102
RTVSPropertyOp10
 70
     1
102
RTVSPropertyOp11
 70
     1
102
RTVSPropertyOp12
 70
     1
102
RTVSPropertyOp13
 70
     1
102
RTVSPropertyOp14
 70
     1
102
RTVSPropertyOp15
 70
     1
102
RTVSPropertyOp16
 70
     1
102
RTVSPropertyOp17
 70
     1
102
RTVSPropertyOp18
 70
     1
102
RTVSPropertyOp19
 70
     1
102
RTVSPropertyOp20
 70
     1
102
RTVSPropertyOp21
 70
     1
102
RTVSPropertyOp22
 70
     1
102
RTVSPropertyOp23
 70
     1
102
RTVSPropertyOp24
 70
     1
102
RTVSPropertyOp25
 70
     1
102
RTVSPropertyOp26
 70
     1
102
RTVSPropertyOp27
 70
     1
102
RTVSPropertyOp28
 70
     1
102
RTVSPropertyOp29
 70
     1
102
RTVSPropertyOp30
 70
     1
102
RTVSPropertyOp31
 70
     1
102
RTVSPropertyOp32
 70
     1
102
RTVSPropertyOp33
 70
     1
102
RTVSPropertyOp34
 70
     1
102
RTVSPropertyOp35
 70
     1
102
RTVSPropertyOp36
 70
     1
102
RTVSPropertyOp37
 70
     1
102
RTVSPropertyOp38
 70
     1
102
RTVSPropertyOp39
 70
     1
102
RTVSPropertyOp40
 70
     1
102
RTVSPropertyOp41
 70
     1
102
RTVSPropertyOp42
 70
     1
102
RTVSPropertyOp43
 70
     1
102
RTVSPropertyOp44
 70
     1
102
RTVSPropertyOp45
 70
     1
102
RTVSPropertyOp46
 70
     1
102
RTVSPropertyOp47
 70
     1
102
RTVSPropertyOp48
 70
     1
102
RTVSPropertyOp49
 70
     1
102
RTVSPropertyOp50
 70
     1
102
RTVSPropertyOp51
 70
     0
102
RTVSPropertyOp52
 70
     0
102
RTVSPropertyOp53
 70
     1
102
RTVSPropertyOp54
 70
     1
102
RTVSPropertyOp55
 70
     1
102
RTVSPropertyOp56
 70
     1
102
RTVSPropertyOp57
 70
     1
102
RTVSPropertyOp58
 70
     1
102
RTVSPropertyOp59
 70
     1
102
RTVSPropertyOp60
 70
     1
102
RTVSPropertyOp61
 70
     1
102
RTVSPropertyOp62
 70
     1
  0
XRECORD
  5
7B3E
102
{ACAD_REACTORS
330
7B3D
102
}
330
7B3D
100
AcDbXrecord
280
     1
102
RTVSPost2010Prop28
280
     0
102
RTVSPost2010PropOp28
 70
     1
102
RTVSPost2010Prop29
280
     1
102
RTVSPost2010PropOp29
 70
     1
102
RTVSPost2010Prop30
280
     1
102
RTVSPost2010PropOp30
 70
     1
102
RTVSPost2010Prop31
280
     0
102
RTVSPost2010PropOp31
 70
     1
102
RTVSPost2010Prop32
280
     0
102
RTVSPost2010PropOp32
 70
     1
102
RTVSPost2010Prop33
280
     0
102
RTVSPost2010PropOp33
 70
     1
102
RTVSPost2010Prop34
280
     0
102
RTVSPost2010PropOp34
 70
     1
102
RTVSPost2010Prop35
280
     0
102
RTVSPost2010PropOp35
 70
     1
102
RTVSPost2010Prop36
280
     0
102
RTVSPost2010PropOp36
 70
     1
102
RTVSPost2010Prop37
 90
       50
102
RTVSPost2010PropOp37
 70
     1
102
RTVSPost2010Prop38
140
0.0
102
RTVSPost2010PropOp38
 70
     1
102
RTVSPost2010Prop39
140
1.0
102
RTVSPost2010PropOp39
 70
     1
102
RTVSPost2010Prop40
 90
        0
102
RTVSPost2010PropOp40
 70
     1
102
RTVSPost2010Prop41ColorIndex
 90
       18
102
RTVSPost2010Prop41ColorRGB
 90
        0
102
RTVSPost2010PropOp41
 70
     1
102
RTVSPost2010Prop42
 90
       50
102
RTVSPost2010PropOp42
 70
     1
102
RTVSPost2010Prop43
 90
        3
102
RTVSPost2010PropOp43
 70
     1
102
RTVSPost2010Prop44ColorIndex
 90
        5
102
RTVSPost2010Prop44ColorRGB
 90
      255
102
RTVSPost2010PropOp44
 70
     1
102
RTVSPost2010Prop45
280
     0
102
RTVSPost2010PropOp45
 70
     1
102
RTVSPost2010Prop46
 90
       50
102
RTVSPost2010PropOp46
 70
     1
102
RTVSPost2010Prop47
 90
       50
102
RTVSPost2010PropOp47
 70
     1
102
RTVSPost2010Prop48
 90
       50
102
RTVSPost2010PropOp48
 70
     1
102
RTVSPost2010Prop49
280
     0
102
RTVSPost2010PropOp49
 70
     1
102
RTVSPost2010Prop50
 90
       50
102
RTVSPost2010PropOp50
 70
     1
102
RTVSPost2010Prop51ColorIndex
 90
      256
102
RTVSPost2010Prop51ColorRGB
 90
-16777216
102
RTVSPost2010PropOp51
 70
     0
102
RTVSPost2010Prop52
140
1.0
102
RTVSPost2010PropOp52
 70
     0
102
RTVSPost2010Prop53
 90
        2
102
RTVSPost2010PropOp53
 70
     1
102
RTVSPost2010Prop54
  1
strokes_ogs.tif
102
RTVSPost2010PropOp54
 70
     1
102
RTVSPost2010Prop55
280
     0
102
RTVSPost2010PropOp55
 70
     1
102
RTVSPost2010Prop56
140
1.0
102
RTVSPost2010PropOp56
 70
     1
102
RTVSPost2010Prop57
140
1.0
102
RTVSPost2010PropOp57
 70
     1
102
RTVSPropertyOp0
 70
     1
102
RTVSPropertyOp1
 70
     1
102
RTVSPropertyOp2
 70
     1
102
RTVSPropertyOp3
 70
     1
102
RTVSPropertyOp4
 70
     1
102
RTVSPropertyOp5
 70
     1
102
RTVSPropertyOp6
 70
     1
102
RTVSPropertyOp7
 70
     1
102
RTVSPropertyOp8
 70
     1
102
RTVSPropertyOp9
 70
     1
102
RTVSPropertyOp10
 70
     1
102
RTVSPropertyOp11
 70
     1
102
RTVSPropertyOp12
 70
     1
102
RTVSPropertyOp13
 70
     1
102
RTVSPropertyOp14
 70
     1
102
RTVSPropertyOp15
 70
     1
102
RTVSPropertyOp16
 70
     1
102
RTVSPropertyOp17
 70
     1
102
RTVSPropertyOp18
 70
     1
102
RTVSPropertyOp19
 70
     1
102
RTVSPropertyOp20
 70
     1
102
RTVSPropertyOp21
 70
     1
102
RTVSPropertyOp22
 70
     1
102
RTVSPropertyOp23
 70
     1
102
RTVSPropertyOp24
 70
     1
102
RTVSPropertyOp25
 70
     1
102
RTVSPropertyOp26
 70
     1
102
RTVSPropertyOp27
 70
     1
102
RTVSPropertyOp28
 70
     1
102
RTVSPropertyOp29
 70
     1
102
RTVSPropertyOp30
 70
     1
102
RTVSPropertyOp31
 70
     1
102
RTVSPropertyOp32
 70
     1
102
RTVSPropertyOp33
 70
     1
102
RTVSPropertyOp34
 70
     1
102
RTVSPropertyOp35
 70
     1
102
RTVSPropertyOp36
 70
     1
102
RTVSPropertyOp37
 70
     1
102
RTVSPropertyOp38
 70
     1
102
RTVSPropertyOp39
 70
     1
102
RTVSPropertyOp40
 70
     1
102
RTVSPropertyOp41
 70
     1
102
RTVSPropertyOp42
 70
     1
102
RTVSPropertyOp43
 70
     1
102
RTVSPropertyOp44
 70
     1
102
RTVSPropertyOp45
 70
     1
102
RTVSPropertyOp46
 70
     1
102
RTVSPropertyOp47
 70
     1
102
RTVSPropertyOp48
 70
     1
102
RTVSPropertyOp49
 70
     1
102
RTVSPropertyOp50
 70
     1
102
RTVSPropertyOp51
 70
     0
102
RTVSPropertyOp52
 70
     0
102
RTVSPropertyOp53
 70
     1
102
RTVSPropertyOp54
 70
     1
102
RTVSPropertyOp55
 70
     1
102
RTVSPropertyOp56
 70
     1
102
RTVSPropertyOp57
 70
     1
102
RTVSPropertyOp58
 70
     1
102
RTVSPropertyOp59
 70
     1
102
RTVSPropertyOp60
 70
     1
102
RTVSPropertyOp61
 70
     1
102
RTVSPropertyOp62
 70
     1
  0
XRECORD
  5
7B4C
102
{ACAD_REACTORS
330
7B4B
102
}
330
7B4B
100
AcDbXrecord
280
     1
102
RTVSPost2010Prop28
280
     0
102
RTVSPost2010PropOp28
 70
     1
102
RTVSPost2010Prop29
280
     1
102
RTVSPost2010PropOp29
 70
     1
102
RTVSPost2010Prop30
280
     1
102
RTVSPost2010PropOp30
 70
     1
102
RTVSPost2010Prop31
280
     0
102
RTVSPost2010PropOp31
 70
     1
102
RTVSPost2010Prop32
280
     0
102
RTVSPost2010PropOp32
 70
     1
102
RTVSPost2010Prop33
280
     0
102
RTVSPost2010PropOp33
 70
     1
102
RTVSPost2010Prop34
280
     0
102
RTVSPost2010PropOp34
 70
     1
102
RTVSPost2010Prop35
280
     0
102
RTVSPost2010PropOp35
 70
     1
102
RTVSPost2010Prop36
280
     0
102
RTVSPost2010PropOp36
 70
     1
102
RTVSPost2010Prop37
 90
       50
102
RTVSPost2010PropOp37
 70
     1
102
RTVSPost2010Prop38
140
0.0
102
RTVSPost2010PropOp38
 70
     1
102
RTVSPost2010Prop39
140
1.0
102
RTVSPost2010PropOp39
 70
     1
102
RTVSPost2010Prop40
 90
        0
102
RTVSPost2010PropOp40
 70
     1
102
RTVSPost2010Prop41ColorIndex
 90
       18
102
RTVSPost2010Prop41ColorRGB
 90
        0
102
RTVSPost2010PropOp41
 70
     1
102
RTVSPost2010Prop42
 90
       50
102
RTVSPost2010PropOp42
 70
     1
102
RTVSPost2010Prop43
 90
        3
102
RTVSPost2010PropOp43
 70
     1
102
RTVSPost2010Prop44ColorIndex
 90
        5
102
RTVSPost2010Prop44ColorRGB
 90
      255
102
RTVSPost2010PropOp44
 70
     1
102
RTVSPost2010Prop45
280
     0
102
RTVSPost2010PropOp45
 70
     1
102
RTVSPost2010Prop46
 90
       50
102
RTVSPost2010PropOp46
 70
     1
102
RTVSPost2010Prop47
 90
       50
102
RTVSPost2010PropOp47
 70
     1
102
RTVSPost2010Prop48
 90
       50
102
RTVSPost2010PropOp48
 70
     1
102
RTVSPost2010Prop49
280
     0
102
RTVSPost2010PropOp49
 70
     1
102
RTVSPost2010Prop50
 90
       50
102
RTVSPost2010PropOp50
 70
     1
102
RTVSPost2010Prop51ColorIndex
 90
      256
102
RTVSPost2010Prop51ColorRGB
 90
-16777216
102
RTVSPost2010PropOp51
 70
     0
102
RTVSPost2010Prop52
140
1.0
102
RTVSPost2010PropOp52
 70
     0
102
RTVSPost2010Prop53
 90
        2
102
RTVSPost2010PropOp53
 70
     1
102
RTVSPost2010Prop54
  1
strokes_ogs.tif
102
RTVSPost2010PropOp54
 70
     1
102
RTVSPost2010Prop55
280
     0
102
RTVSPost2010PropOp55
 70
     1
102
RTVSPost2010Prop56
140
1.0
102
RTVSPost2010PropOp56
 70
     1
102
RTVSPost2010Prop57
140
1.0
102
RTVSPost2010PropOp57
 70
     1
102
RTVSPropertyOp0
 70
     1
102
RTVSPropertyOp1
 70
     1
102
RTVSPropertyOp2
 70
     1
102
RTVSPropertyOp3
 70
     1
102
RTVSPropertyOp4
 70
     1
102
RTVSPropertyOp5
 70
     1
102
RTVSPropertyOp6
 70
     1
102
RTVSPropertyOp7
 70
     1
102
RTVSPropertyOp8
 70
     1
102
RTVSPropertyOp9
 70
     1
102
RTVSPropertyOp10
 70
     1
102
RTVSPropertyOp11
 70
     1
102
RTVSPropertyOp12
 70
     1
102
RTVSPropertyOp13
 70
     1
102
RTVSPropertyOp14
 70
     1
102
RTVSPropertyOp15
 70
     1
102
RTVSPropertyOp16
 70
     1
102
RTVSPropertyOp17
 70
     1
102
RTVSPropertyOp18
 70
     1
102
RTVSPropertyOp19
 70
     1
102
RTVSPropertyOp20
 70
     1
102
RTVSPropertyOp21
 70
     1
102
RTVSPropertyOp22
 70
     1
102
RTVSPropertyOp23
 70
     1
102
RTVSPropertyOp24
 70
     1
102
RTVSPropertyOp25
 70
     1
102
RTVSPropertyOp26
 70
     1
102
RTVSPropertyOp27
 70
     1
102
RTVSPropertyOp28
 70
     1
102
RTVSPropertyOp29
 70
     1
102
RTVSPropertyOp30
 70
     1
102
RTVSPropertyOp31
 70
     1
102
RTVSPropertyOp32
 70
     1
102
RTVSPropertyOp33
 70
     1
102
RTVSPropertyOp34
 70
     1
102
RTVSPropertyOp35
 70
     1
102
RTVSPropertyOp36
 70
     1
102
RTVSPropertyOp37
 70
     1
102
RTVSPropertyOp38
 70
     1
102
RTVSPropertyOp39
 70
     1
102
RTVSPropertyOp40
 70
     1
102
RTVSPropertyOp41
 70
     1
102
RTVSPropertyOp42
 70
     1
102
RTVSPropertyOp43
 70
     1
102
RTVSPropertyOp44
 70
     1
102
RTVSPropertyOp45
 70
     1
102
RTVSPropertyOp46
 70
     1
102
RTVSPropertyOp47
 70
     1
102
RTVSPropertyOp48
 70
     1
102
RTVSPropertyOp49
 70
     1
102
RTVSPropertyOp50
 70
     1
102
RTVSPropertyOp51
 70
     0
102
RTVSPropertyOp52
 70
     0
102
RTVSPropertyOp53
 70
     1
102
RTVSPropertyOp54
 70
     1
102
RTVSPropertyOp55
 70
     1
102
RTVSPropertyOp56
 70
     1
102
RTVSPropertyOp57
 70
     1
102
RTVSPropertyOp58
 70
     1
102
RTVSPropertyOp59
 70
     1
102
RTVSPropertyOp60
 70
     1
102
RTVSPropertyOp61
 70
     1
102
RTVSPropertyOp62
 70
     1
  0
XRECORD
  5
7B54
102
{ACAD_REACTORS
330
7B53
102
}
330
7B53
100
AcDbXrecord
280
     1
102
RTVSPost2010Prop28
280
     0
102
RTVSPost2010PropOp28
 70
     1
102
RTVSPost2010Prop29
280
     1
102
RTVSPost2010PropOp29
 70
     1
102
RTVSPost2010Prop30
280
     1
102
RTVSPost2010PropOp30
 70
     1
102
RTVSPost2010Prop31
280
     0
102
RTVSPost2010PropOp31
 70
     1
102
RTVSPost2010Prop32
280
     0
102
RTVSPost2010PropOp32
 70
     1
102
RTVSPost2010Prop33
280
     0
102
RTVSPost2010PropOp33
 70
     1
102
RTVSPost2010Prop34
280
     0
102
RTVSPost2010PropOp34
 70
     1
102
RTVSPost2010Prop35
280
     0
102
RTVSPost2010PropOp35
 70
     1
102
RTVSPost2010Prop36
280
     0
102
RTVSPost2010PropOp36
 70
     1
102
RTVSPost2010Prop37
 90
       50
102
RTVSPost2010PropOp37
 70
     1
102
RTVSPost2010Prop38
140
0.0
102
RTVSPost2010PropOp38
 70
     1
102
RTVSPost2010Prop39
140
1.0
102
RTVSPost2010PropOp39
 70
     1
102
RTVSPost2010Prop40
 90
        0
102
RTVSPost2010PropOp40
 70
     1
102
RTVSPost2010Prop41ColorIndex
 90
       18
102
RTVSPost2010Prop41ColorRGB
 90
        0
102
RTVSPost2010PropOp41
 70
     1
102
RTVSPost2010Prop42
 90
       50
102
RTVSPost2010PropOp42
 70
     1
102
RTVSPost2010Prop43
 90
        3
102
RTVSPost2010PropOp43
 70
     1
102
RTVSPost2010Prop44ColorIndex
 90
        5
102
RTVSPost2010Prop44ColorRGB
 90
      255
102
RTVSPost2010PropOp44
 70
     1
102
RTVSPost2010Prop45
280
     0
102
RTVSPost2010PropOp45
 70
     1
102
RTVSPost2010Prop46
 90
       50
102
RTVSPost2010PropOp46
 70
     1
102
RTVSPost2010Prop47
 90
       50
102
RTVSPost2010PropOp47
 70
     1
102
RTVSPost2010Prop48
 90
       50
102
RTVSPost2010PropOp48
 70
     1
102
RTVSPost2010Prop49
280
     0
102
RTVSPost2010PropOp49
 70
     1
102
RTVSPost2010Prop50
 90
       50
102
RTVSPost2010PropOp50
 70
     1
102
RTVSPost2010Prop51ColorIndex
 90
      256
102
RTVSPost2010Prop51ColorRGB
 90
-16777216
102
RTVSPost2010PropOp51
 70
     0
102
RTVSPost2010Prop52
140
1.0
102
RTVSPost2010PropOp52
 70
     0
102
RTVSPost2010Prop53
 90
        2
102
RTVSPost2010PropOp53
 70
     1
102
RTVSPost2010Prop54
  1
strokes_ogs.tif
102
RTVSPost2010PropOp54
 70
     1
102
RTVSPost2010Prop55
280
     0
102
RTVSPost2010PropOp55
 70
     1
102
RTVSPost2010Prop56
140
1.0
102
RTVSPost2010PropOp56
 70
     1
102
RTVSPost2010Prop57
140
1.0
102
RTVSPost2010PropOp57
 70
     1
102
RTVSPropertyOp0
 70
     1
102
RTVSPropertyOp1
 70
     1
102
RTVSPropertyOp2
 70
     1
102
RTVSPropertyOp3
 70
     1
102
RTVSPropertyOp4
 70
     1
102
RTVSPropertyOp5
 70
     1
102
RTVSPropertyOp6
 70
     1
102
RTVSPropertyOp7
 70
     1
102
RTVSPropertyOp8
 70
     1
102
RTVSPropertyOp9
 70
     1
102
RTVSPropertyOp10
 70
     1
102
RTVSPropertyOp11
 70
     1
102
RTVSPropertyOp12
 70
     1
102
RTVSPropertyOp13
 70
     1
102
RTVSPropertyOp14
 70
     1
102
RTVSPropertyOp15
 70
     1
102
RTVSPropertyOp16
 70
     1
102
RTVSPropertyOp17
 70
     1
102
RTVSPropertyOp18
 70
     1
102
RTVSPropertyOp19
 70
     1
102
RTVSPropertyOp20
 70
     1
102
RTVSPropertyOp21
 70
     1
102
RTVSPropertyOp22
 70
     1
102
RTVSPropertyOp23
 70
     1
102
RTVSPropertyOp24
 70
     1
102
RTVSPropertyOp25
 70
     1
102
RTVSPropertyOp26
 70
     1
102
RTVSPropertyOp27
 70
     1
102
RTVSPropertyOp28
 70
     1
102
RTVSPropertyOp29
 70
     1
102
RTVSPropertyOp30
 70
     1
102
RTVSPropertyOp31
 70
     1
102
RTVSPropertyOp32
 70
     1
102
RTVSPropertyOp33
 70
     1
102
RTVSPropertyOp34
 70
     1
102
RTVSPropertyOp35
 70
     1
102
RTVSPropertyOp36
 70
     1
102
RTVSPropertyOp37
 70
     1
102
RTVSPropertyOp38
 70
     1
102
RTVSPropertyOp39
 70
     1
102
RTVSPropertyOp40
 70
     1
102
RTVSPropertyOp41
 70
     1
102
RTVSPropertyOp42
 70
     1
102
RTVSPropertyOp43
 70
     1
102
RTVSPropertyOp44
 70
     1
102
RTVSPropertyOp45
 70
     1
102
RTVSPropertyOp46
 70
     1
102
RTVSPropertyOp47
 70
     1
102
RTVSPropertyOp48
 70
     1
102
RTVSPropertyOp49
 70
     1
102
RTVSPropertyOp50
 70
     1
102
RTVSPropertyOp51
 70
     0
102
RTVSPropertyOp52
 70
     0
102
RTVSPropertyOp53
 70
     1
102
RTVSPropertyOp54
 70
     1
102
RTVSPropertyOp55
 70
     1
102
RTVSPropertyOp56
 70
     1
102
RTVSPropertyOp57
 70
     1
102
RTVSPropertyOp58
 70
     1
102
RTVSPropertyOp59
 70
     1
102
RTVSPropertyOp60
 70
     1
102
RTVSPropertyOp61
 70
     1
102
RTVSPropertyOp62
 70
     1
  0
XRECORD
  5
7B46
102
{ACAD_REACTORS
330
7B45
102
}
330
7B45
100
AcDbXrecord
280
     1
102
RTVSPost2010Prop28
280
     0
102
RTVSPost2010PropOp28
 70
     1
102
RTVSPost2010Prop29
280
     1
102
RTVSPost2010PropOp29
 70
     1
102
RTVSPost2010Prop30
280
     1
102
RTVSPost2010PropOp30
 70
     1
102
RTVSPost2010Prop31
280
     0
102
RTVSPost2010PropOp31
 70
     1
102
RTVSPost2010Prop32
280
     0
102
RTVSPost2010PropOp32
 70
     1
102
RTVSPost2010Prop33
280
     0
102
RTVSPost2010PropOp33
 70
     1
102
RTVSPost2010Prop34
280
     0
102
RTVSPost2010PropOp34
 70
     1
102
RTVSPost2010Prop35
280
     0
102
RTVSPost2010PropOp35
 70
     1
102
RTVSPost2010Prop36
280
     0
102
RTVSPost2010PropOp36
 70
     1
102
RTVSPost2010Prop37
 90
       50
102
RTVSPost2010PropOp37
 70
     1
102
RTVSPost2010Prop38
140
0.0
102
RTVSPost2010PropOp38
 70
     1
102
RTVSPost2010Prop39
140
1.0
102
RTVSPost2010PropOp39
 70
     1
102
RTVSPost2010Prop40
 90
        0
102
RTVSPost2010PropOp40
 70
     1
102
RTVSPost2010Prop41ColorIndex
 90
       18
102
RTVSPost2010Prop41ColorRGB
 90
        0
102
RTVSPost2010PropOp41
 70
     1
102
RTVSPost2010Prop42
 90
       50
102
RTVSPost2010PropOp42
 70
     1
102
RTVSPost2010Prop43
 90
        3
102
RTVSPost2010PropOp43
 70
     1
102
RTVSPost2010Prop44ColorIndex
 90
        5
102
RTVSPost2010Prop44ColorRGB
 90
      255
102
RTVSPost2010PropOp44
 70
     1
102
RTVSPost2010Prop45
280
     0
102
RTVSPost2010PropOp45
 70
     1
102
RTVSPost2010Prop46
 90
       50
102
RTVSPost2010PropOp46
 70
     1
102
RTVSPost2010Prop47
 90
       50
102
RTVSPost2010PropOp47
 70
     1
102
RTVSPost2010Prop48
 90
       50
102
RTVSPost2010PropOp48
 70
     1
102
RTVSPost2010Prop49
280
     0
102
RTVSPost2010PropOp49
 70
     1
102
RTVSPost2010Prop50
 90
       50
102
RTVSPost2010PropOp50
 70
     1
102
RTVSPost2010Prop51ColorIndex
 90
      256
102
RTVSPost2010Prop51ColorRGB
 90
-16777216
102
RTVSPost2010PropOp51
 70
     0
102
RTVSPost2010Prop52
140
1.0
102
RTVSPost2010PropOp52
 70
     0
102
RTVSPost2010Prop53
 90
        2
102
RTVSPost2010PropOp53
 70
     1
102
RTVSPost2010Prop54
  1
strokes_ogs.tif
102
RTVSPost2010PropOp54
 70
     1
102
RTVSPost2010Prop55
280
     0
102
RTVSPost2010PropOp55
 70
     1
102
RTVSPost2010Prop56
140
1.0
102
RTVSPost2010PropOp56
 70
     1
102
RTVSPost2010Prop57
140
1.0
102
RTVSPost2010PropOp57
 70
     1
102
RTVSPropertyOp0
 70
     1
102
RTVSPropertyOp1
 70
     1
102
RTVSPropertyOp2
 70
     1
102
RTVSPropertyOp3
 70
     1
102
RTVSPropertyOp4
 70
     1
102
RTVSPropertyOp5
 70
     1
102
RTVSPropertyOp6
 70
     1
102
RTVSPropertyOp7
 70
     1
102
RTVSPropertyOp8
 70
     1
102
RTVSPropertyOp9
 70
     1
102
RTVSPropertyOp10
 70
     1
102
RTVSPropertyOp11
 70
     1
102
RTVSPropertyOp12
 70
     1
102
RTVSPropertyOp13
 70
     1
102
RTVSPropertyOp14
 70
     1
102
RTVSPropertyOp15
 70
     1
102
RTVSPropertyOp16
 70
     1
102
RTVSPropertyOp17
 70
     1
102
RTVSPropertyOp18
 70
     1
102
RTVSPropertyOp19
 70
     1
102
RTVSPropertyOp20
 70
     1
102
RTVSPropertyOp21
 70
     1
102
RTVSPropertyOp22
 70
     1
102
RTVSPropertyOp23
 70
     1
102
RTVSPropertyOp24
 70
     1
102
RTVSPropertyOp25
 70
     1
102
RTVSPropertyOp26
 70
     1
102
RTVSPropertyOp27
 70
     1
102
RTVSPropertyOp28
 70
     1
102
RTVSPropertyOp29
 70
     1
102
RTVSPropertyOp30
 70
     1
102
RTVSPropertyOp31
 70
     1
102
RTVSPropertyOp32
 70
     1
102
RTVSPropertyOp33
 70
     1
102
RTVSPropertyOp34
 70
     1
102
RTVSPropertyOp35
 70
     1
102
RTVSPropertyOp36
 70
     1
102
RTVSPropertyOp37
 70
     1
102
RTVSPropertyOp38
 70
     1
102
RTVSPropertyOp39
 70
     1
102
RTVSPropertyOp40
 70
     1
102
RTVSPropertyOp41
 70
     1
102
RTVSPropertyOp42
 70
     1
102
RTVSPropertyOp43
 70
     1
102
RTVSPropertyOp44
 70
     1
102
RTVSPropertyOp45
 70
     1
102
RTVSPropertyOp46
 70
     1
102
RTVSPropertyOp47
 70
     1
102
RTVSPropertyOp48
 70
     1
102
RTVSPropertyOp49
 70
     1
102
RTVSPropertyOp50
 70
     1
102
RTVSPropertyOp51
 70
     0
102
RTVSPropertyOp52
 70
     0
102
RTVSPropertyOp53
 70
     1
102
RTVSPropertyOp54
 70
     1
102
RTVSPropertyOp55
 70
     1
102
RTVSPropertyOp56
 70
     1
102
RTVSPropertyOp57
 70
     1
102
RTVSPropertyOp58
 70
     1
102
RTVSPropertyOp59
 70
     1
102
RTVSPropertyOp60
 70
     1
102
RTVSPropertyOp61
 70
     1
102
RTVSPropertyOp62
 70
     1
  0
XRECORD
  5
7B4A
102
{ACAD_REACTORS
330
7B49
102
}
330
7B49
100
AcDbXrecord
280
     1
102
RTVSPost2010Prop28
280
     0
102
RTVSPost2010PropOp28
 70
     1
102
RTVSPost2010Prop29
280
     1
102
RTVSPost2010PropOp29
 70
     1
102
RTVSPost2010Prop30
280
     1
102
RTVSPost2010PropOp30
 70
     1
102
RTVSPost2010Prop31
280
     0
102
RTVSPost2010PropOp31
 70
     1
102
RTVSPost2010Prop32
280
     0
102
RTVSPost2010PropOp32
 70
     1
102
RTVSPost2010Prop33
280
     0
102
RTVSPost2010PropOp33
 70
     1
102
RTVSPost2010Prop34
280
     0
102
RTVSPost2010PropOp34
 70
     1
102
RTVSPost2010Prop35
280
     0
102
RTVSPost2010PropOp35
 70
     1
102
RTVSPost2010Prop36
280
     0
102
RTVSPost2010PropOp36
 70
     1
102
RTVSPost2010Prop37
 90
       50
102
RTVSPost2010PropOp37
 70
     1
102
RTVSPost2010Prop38
140
0.0
102
RTVSPost2010PropOp38
 70
     1
102
RTVSPost2010Prop39
140
1.0
102
RTVSPost2010PropOp39
 70
     1
102
RTVSPost2010Prop40
 90
        0
102
RTVSPost2010PropOp40
 70
     1
102
RTVSPost2010Prop41ColorIndex
 90
       18
102
RTVSPost2010Prop41ColorRGB
 90
        0
102
RTVSPost2010PropOp41
 70
     1
102
RTVSPost2010Prop42
 90
       50
102
RTVSPost2010PropOp42
 70
     1
102
RTVSPost2010Prop43
 90
        3
102
RTVSPost2010PropOp43
 70
     1
102
RTVSPost2010Prop44ColorIndex
 90
        5
102
RTVSPost2010Prop44ColorRGB
 90
      255
102
RTVSPost2010PropOp44
 70
     1
102
RTVSPost2010Prop45
280
     0
102
RTVSPost2010PropOp45
 70
     1
102
RTVSPost2010Prop46
 90
       50
102
RTVSPost2010PropOp46
 70
     1
102
RTVSPost2010Prop47
 90
       50
102
RTVSPost2010PropOp47
 70
     1
102
RTVSPost2010Prop48
 90
       50
102
RTVSPost2010PropOp48
 70
     1
102
RTVSPost2010Prop49
280
     0
102
RTVSPost2010PropOp49
 70
     1
102
RTVSPost2010Prop50
 90
       50
102
RTVSPost2010PropOp50
 70
     1
102
RTVSPost2010Prop51ColorIndex
 90
      256
102
RTVSPost2010Prop51ColorRGB
 90
-16777216
102
RTVSPost2010PropOp51
 70
     0
102
RTVSPost2010Prop52
140
1.0
102
RTVSPost2010PropOp52
 70
     0
102
RTVSPost2010Prop53
 90
        2
102
RTVSPost2010PropOp53
 70
     1
102
RTVSPost2010Prop54
  1
strokes_ogs.tif
102
RTVSPost2010PropOp54
 70
     1
102
RTVSPost2010Prop55
280
     0
102
RTVSPost2010PropOp55
 70
     1
102
RTVSPost2010Prop56
140
1.0
102
RTVSPost2010PropOp56
 70
     1
102
RTVSPost2010Prop57
140
1.0
102
RTVSPost2010PropOp57
 70
     1
102
RTVSPropertyOp0
 70
     1
102
RTVSPropertyOp1
 70
     1
102
RTVSPropertyOp2
 70
     1
102
RTVSPropertyOp3
 70
     1
102
RTVSPropertyOp4
 70
     1
102
RTVSPropertyOp5
 70
     1
102
RTVSPropertyOp6
 70
     1
102
RTVSPropertyOp7
 70
     1
102
RTVSPropertyOp8
 70
     1
102
RTVSPropertyOp9
 70
     1
102
RTVSPropertyOp10
 70
     1
102
RTVSPropertyOp11
 70
     1
102
RTVSPropertyOp12
 70
     1
102
RTVSPropertyOp13
 70
     1
102
RTVSPropertyOp14
 70
     1
102
RTVSPropertyOp15
 70
     1
102
RTVSPropertyOp16
 70
     1
102
RTVSPropertyOp17
 70
     1
102
RTVSPropertyOp18
 70
     1
102
RTVSPropertyOp19
 70
     1
102
RTVSPropertyOp20
 70
     1
102
RTVSPropertyOp21
 70
     1
102
RTVSPropertyOp22
 70
     1
102
RTVSPropertyOp23
 70
     1
102
RTVSPropertyOp24
 70
     1
102
RTVSPropertyOp25
 70
     1
102
RTVSPropertyOp26
 70
     1
102
RTVSPropertyOp27
 70
     1
102
RTVSPropertyOp28
 70
     1
102
RTVSPropertyOp29
 70
     1
102
RTVSPropertyOp30
 70
     1
102
RTVSPropertyOp31
 70
     1
102
RTVSPropertyOp32
 70
     1
102
RTVSPropertyOp33
 70
     1
102
RTVSPropertyOp34
 70
     1
102
RTVSPropertyOp35
 70
     1
102
RTVSPropertyOp36
 70
     1
102
RTVSPropertyOp37
 70
     1
102
RTVSPropertyOp38
 70
     1
102
RTVSPropertyOp39
 70
     1
102
RTVSPropertyOp40
 70
     1
102
RTVSPropertyOp41
 70
     1
102
RTVSPropertyOp42
 70
     1
102
RTVSPropertyOp43
 70
     1
102
RTVSPropertyOp44
 70
     1
102
RTVSPropertyOp45
 70
     1
102
RTVSPropertyOp46
 70
     1
102
RTVSPropertyOp47
 70
     1
102
RTVSPropertyOp48
 70
     1
102
RTVSPropertyOp49
 70
     1
102
RTVSPropertyOp50
 70
     1
102
RTVSPropertyOp51
 70
     0
102
RTVSPropertyOp52
 70
     0
102
RTVSPropertyOp53
 70
     1
102
RTVSPropertyOp54
 70
     1
102
RTVSPropertyOp55
 70
     1
102
RTVSPropertyOp56
 70
     1
102
RTVSPropertyOp57
 70
     1
102
RTVSPropertyOp58
 70
     1
102
RTVSPropertyOp59
 70
     1
102
RTVSPropertyOp60
 70
     1
102
RTVSPropertyOp61
 70
     1
102
RTVSPropertyOp62
 70
     1
  0
XRECORD
  5
7B5C
102
{ACAD_REACTORS
330
7B5B
102
}
330
7B5B
100
AcDbXrecord
280
     1
102
RTVSPost2010Prop28
280
     0
102
RTVSPost2010PropOp28
 70
     1
102
RTVSPost2010Prop29
280
     1
102
RTVSPost2010PropOp29
 70
     1
102
RTVSPost2010Prop30
280
     1
102
RTVSPost2010PropOp30
 70
     1
102
RTVSPost2010Prop31
280
     0
102
RTVSPost2010PropOp31
 70
     1
102
RTVSPost2010Prop32
280
     0
102
RTVSPost2010PropOp32
 70
     1
102
RTVSPost2010Prop33
280
     0
102
RTVSPost2010PropOp33
 70
     1
102
RTVSPost2010Prop34
280
     0
102
RTVSPost2010PropOp34
 70
     1
102
RTVSPost2010Prop35
280
     0
102
RTVSPost2010PropOp35
 70
     1
102
RTVSPost2010Prop36
280
     0
102
RTVSPost2010PropOp36
 70
     1
102
RTVSPost2010Prop37
 90
       50
102
RTVSPost2010PropOp37
 70
     1
102
RTVSPost2010Prop38
140
0.0
102
RTVSPost2010PropOp38
 70
     1
102
RTVSPost2010Prop39
140
1.0
102
RTVSPost2010PropOp39
 70
     1
102
RTVSPost2010Prop40
 90
        0
102
RTVSPost2010PropOp40
 70
     1
102
RTVSPost2010Prop41ColorIndex
 90
       18
102
RTVSPost2010Prop41ColorRGB
 90
        0
102
RTVSPost2010PropOp41
 70
     1
102
RTVSPost2010Prop42
 90
       50
102
RTVSPost2010PropOp42
 70
     1
102
RTVSPost2010Prop43
 90
        3
102
RTVSPost2010PropOp43
 70
     1
102
RTVSPost2010Prop44ColorIndex
 90
        5
102
RTVSPost2010Prop44ColorRGB
 90
      255
102
RTVSPost2010PropOp44
 70
     1
102
RTVSPost2010Prop45
280
     0
102
RTVSPost2010PropOp45
 70
     1
102
RTVSPost2010Prop46
 90
       50
102
RTVSPost2010PropOp46
 70
     1
102
RTVSPost2010Prop47
 90
       50
102
RTVSPost2010PropOp47
 70
     1
102
RTVSPost2010Prop48
 90
       50
102
RTVSPost2010PropOp48
 70
     1
102
RTVSPost2010Prop49
280
     0
102
RTVSPost2010PropOp49
 70
     1
102
RTVSPost2010Prop50
 90
       50
102
RTVSPost2010PropOp50
 70
     1
102
RTVSPost2010Prop51ColorIndex
 90
      256
102
RTVSPost2010Prop51ColorRGB
 90
-16777216
102
RTVSPost2010PropOp51
 70
     0
102
RTVSPost2010Prop52
140
1.0
102
RTVSPost2010PropOp52
 70
     0
102
RTVSPost2010Prop53
 90
        2
102
RTVSPost2010PropOp53
 70
     1
102
RTVSPost2010Prop54
  1
strokes_ogs.tif
102
RTVSPost2010PropOp54
 70
     1
102
RTVSPost2010Prop55
280
     0
102
RTVSPost2010PropOp55
 70
     1
102
RTVSPost2010Prop56
140
1.0
102
RTVSPost2010PropOp56
 70
     1
102
RTVSPost2010Prop57
140
1.0
102
RTVSPost2010PropOp57
 70
     1
102
RTVSPropertyOp0
 70
     0
102
RTVSPropertyOp1
 70
     0
102
RTVSPropertyOp2
 70
     0
102
RTVSPropertyOp3
 70
     0
102
RTVSPropertyOp4
 70
     0
102
RTVSPropertyOp5
 70
     0
102
RTVSPropertyOp6
 70
     0
102
RTVSPropertyOp7
 70
     0
102
RTVSPropertyOp8
 70
     0
102
RTVSPropertyOp9
 70
     0
102
RTVSPropertyOp10
 70
     0
102
RTVSPropertyOp11
 70
     0
102
RTVSPropertyOp12
 70
     0
102
RTVSPropertyOp13
 70
     0
102
RTVSPropertyOp14
 70
     2
102
RTVSPropertyOp15
 70
     0
102
RTVSPropertyOp16
 70
     0
102
RTVSPropertyOp17
 70
     0
102
RTVSPropertyOp18
 70
     0
102
RTVSPropertyOp19
 70
     0
102
RTVSPropertyOp20
 70
     0
102
RTVSPropertyOp21
 70
     0
102
RTVSPropertyOp22
 70
     0
102
RTVSPropertyOp23
 70
     0
102
RTVSPropertyOp24
 70
     0
102
RTVSPropertyOp25
 70
     0
102
RTVSPropertyOp26
 70
     0
102
RTVSPropertyOp27
 70
     0
102
RTVSPropertyOp28
 70
     1
102
RTVSPropertyOp29
 70
     1
102
RTVSPropertyOp30
 70
     1
102
RTVSPropertyOp31
 70
     1
102
RTVSPropertyOp32
 70
     1
102
RTVSPropertyOp33
 70
     1
102
RTVSPropertyOp34
 70
     1
102
RTVSPropertyOp35
 70
     1
102
RTVSPropertyOp36
 70
     1
102
RTVSPropertyOp37
 70
     1
102
RTVSPropertyOp38
 70
     1
102
RTVSPropertyOp39
 70
     1
102
RTVSPropertyOp40
 70
     1
102
RTVSPropertyOp41
 70
     1
102
RTVSPropertyOp42
 70
     1
102
RTVSPropertyOp43
 70
     1
102
RTVSPropertyOp44
 70
     1
102
RTVSPropertyOp45
 70
     1
102
RTVSPropertyOp46
 70
     1
102
RTVSPropertyOp47
 70
     1
102
RTVSPropertyOp48
 70
     1
102
RTVSPropertyOp49
 70
     1
102
RTVSPropertyOp50
 70
     1
102
RTVSPropertyOp51
 70
     0
102
RTVSPropertyOp52
 70
     0
102
RTVSPropertyOp53
 70
     1
102
RTVSPropertyOp54
 70
     1
102
RTVSPropertyOp55
 70
     1
102
RTVSPropertyOp56
 70
     1
102
RTVSPropertyOp57
 70
     1
102
RTVSPropertyOp58
 70
     1
102
RTVSPropertyOp59
 70
     1
102
RTVSPropertyOp60
 70
     1
102
RTVSPropertyOp61
 70
     1
102
RTVSPropertyOp62
 70
     1
  0
XRECORD
  5
7B52
102
{ACAD_REACTORS
330
7B51
102
}
330
7B51
100
AcDbXrecord
280
     1
102
RTVSPost2010Prop28
280
     0
102
RTVSPost2010PropOp28
 70
     1
102
RTVSPost2010Prop29
280
     1
102
RTVSPost2010PropOp29
 70
     1
102
RTVSPost2010Prop30
280
     1
102
RTVSPost2010PropOp30
 70
     1
102
RTVSPost2010Prop31
280
     0
102
RTVSPost2010PropOp31
 70
     1
102
RTVSPost2010Prop32
280
     0
102
RTVSPost2010PropOp32
 70
     1
102
RTVSPost2010Prop33
280
     0
102
RTVSPost2010PropOp33
 70
     1
102
RTVSPost2010Prop34
280
     0
102
RTVSPost2010PropOp34
 70
     1
102
RTVSPost2010Prop35
280
     0
102
RTVSPost2010PropOp35
 70
     1
102
RTVSPost2010Prop36
280
     0
102
RTVSPost2010PropOp36
 70
     1
102
RTVSPost2010Prop37
 90
       50
102
RTVSPost2010PropOp37
 70
     1
102
RTVSPost2010Prop38
140
0.0
102
RTVSPost2010PropOp38
 70
     1
102
RTVSPost2010Prop39
140
1.0
102
RTVSPost2010PropOp39
 70
     1
102
RTVSPost2010Prop40
 90
        0
102
RTVSPost2010PropOp40
 70
     1
102
RTVSPost2010Prop41ColorIndex
 90
       18
102
RTVSPost2010Prop41ColorRGB
 90
        0
102
RTVSPost2010PropOp41
 70
     1
102
RTVSPost2010Prop42
 90
       50
102
RTVSPost2010PropOp42
 70
     1
102
RTVSPost2010Prop43
 90
        3
102
RTVSPost2010PropOp43
 70
     1
102
RTVSPost2010Prop44ColorIndex
 90
        5
102
RTVSPost2010Prop44ColorRGB
 90
      255
102
RTVSPost2010PropOp44
 70
     1
102
RTVSPost2010Prop45
280
     0
102
RTVSPost2010PropOp45
 70
     1
102
RTVSPost2010Prop46
 90
       50
102
RTVSPost2010PropOp46
 70
     1
102
RTVSPost2010Prop47
 90
       50
102
RTVSPost2010PropOp47
 70
     1
102
RTVSPost2010Prop48
 90
       50
102
RTVSPost2010PropOp48
 70
     1
102
RTVSPost2010Prop49
280
     0
102
RTVSPost2010PropOp49
 70
     1
102
RTVSPost2010Prop50
 90
       50
102
RTVSPost2010PropOp50
 70
     1
102
RTVSPost2010Prop51ColorIndex
 90
      256
102
RTVSPost2010Prop51ColorRGB
 90
-16777216
102
RTVSPost2010PropOp51
 70
     0
102
RTVSPost2010Prop52
140
1.0
102
RTVSPost2010PropOp52
 70
     0
102
RTVSPost2010Prop53
 90
        2
102
RTVSPost2010PropOp53
 70
     1
102
RTVSPost2010Prop54
  1
strokes_ogs.tif
102
RTVSPost2010PropOp54
 70
     1
102
RTVSPost2010Prop55
280
     0
102
RTVSPost2010PropOp55
 70
     1
102
RTVSPost2010Prop56
140
1.0
102
RTVSPost2010PropOp56
 70
     1
102
RTVSPost2010Prop57
140
1.0
102
RTVSPost2010PropOp57
 70
     1
102
RTVSPropertyOp0
 70
     1
102
RTVSPropertyOp1
 70
     1
102
RTVSPropertyOp2
 70
     1
102
RTVSPropertyOp3
 70
     1
102
RTVSPropertyOp4
 70
     1
102
RTVSPropertyOp5
 70
     1
102
RTVSPropertyOp6
 70
     1
102
RTVSPropertyOp7
 70
     1
102
RTVSPropertyOp8
 70
     1
102
RTVSPropertyOp9
 70
     1
102
RTVSPropertyOp10
 70
     1
102
RTVSPropertyOp11
 70
     1
102
RTVSPropertyOp12
 70
     1
102
RTVSPropertyOp13
 70
     1
102
RTVSPropertyOp14
 70
     1
102
RTVSPropertyOp15
 70
     1
102
RTVSPropertyOp16
 70
     1
102
RTVSPropertyOp17
 70
     1
102
RTVSPropertyOp18
 70
     1
102
RTVSPropertyOp19
 70
     1
102
RTVSPropertyOp20
 70
     1
102
RTVSPropertyOp21
 70
     1
102
RTVSPropertyOp22
 70
     1
102
RTVSPropertyOp23
 70
     1
102
RTVSPropertyOp24
 70
     1
102
RTVSPropertyOp25
 70
     1
102
RTVSPropertyOp26
 70
     1
102
RTVSPropertyOp27
 70
     1
102
RTVSPropertyOp28
 70
     1
102
RTVSPropertyOp29
 70
     1
102
RTVSPropertyOp30
 70
     1
102
RTVSPropertyOp31
 70
     1
102
RTVSPropertyOp32
 70
     1
102
RTVSPropertyOp33
 70
     1
102
RTVSPropertyOp34
 70
     1
102
RTVSPropertyOp35
 70
     1
102
RTVSPropertyOp36
 70
     1
102
RTVSPropertyOp37
 70
     1
102
RTVSPropertyOp38
 70
     1
102
RTVSPropertyOp39
 70
     1
102
RTVSPropertyOp40
 70
     1
102
RTVSPropertyOp41
 70
     1
102
RTVSPropertyOp42
 70
     1
102
RTVSPropertyOp43
 70
     1
102
RTVSPropertyOp44
 70
     1
102
RTVSPropertyOp45
 70
     1
102
RTVSPropertyOp46
 70
     1
102
RTVSPropertyOp47
 70
     1
102
RTVSPropertyOp48
 70
     1
102
RTVSPropertyOp49
 70
     1
102
RTVSPropertyOp50
 70
     1
102
RTVSPropertyOp51
 70
     0
102
RTVSPropertyOp52
 70
     0
102
RTVSPropertyOp53
 70
     1
102
RTVSPropertyOp54
 70
     1
102
RTVSPropertyOp55
 70
     1
102
RTVSPropertyOp56
 70
     1
102
RTVSPropertyOp57
 70
     1
102
RTVSPropertyOp58
 70
     1
102
RTVSPropertyOp59
 70
     1
102
RTVSPropertyOp60
 70
     1
102
RTVSPropertyOp61
 70
     1
102
RTVSPropertyOp62
 70
     1
  0
XRECORD
  5
7B36
102
{ACAD_REACTORS
330
7B35
102
}
330
7B35
100
AcDbXrecord
280
     1
102
RTVSPost2010Prop28
280
     0
102
RTVSPost2010PropOp28
 70
     1
102
RTVSPost2010Prop29
280
     1
102
RTVSPost2010PropOp29
 70
     1
102
RTVSPost2010Prop30
280
     1
102
RTVSPost2010PropOp30
 70
     1
102
RTVSPost2010Prop31
280
     0
102
RTVSPost2010PropOp31
 70
     1
102
RTVSPost2010Prop32
280
     0
102
RTVSPost2010PropOp32
 70
     1
102
RTVSPost2010Prop33
280
     0
102
RTVSPost2010PropOp33
 70
     1
102
RTVSPost2010Prop34
280
     0
102
RTVSPost2010PropOp34
 70
     1
102
RTVSPost2010Prop35
280
     0
102
RTVSPost2010PropOp35
 70
     1
102
RTVSPost2010Prop36
280
     0
102
RTVSPost2010PropOp36
 70
     1
102
RTVSPost2010Prop37
 90
       50
102
RTVSPost2010PropOp37
 70
     1
102
RTVSPost2010Prop38
140
0.0
102
RTVSPost2010PropOp38
 70
     1
102
RTVSPost2010Prop39
140
1.0
102
RTVSPost2010PropOp39
 70
     1
102
RTVSPost2010Prop40
 90
        0
102
RTVSPost2010PropOp40
 70
     1
102
RTVSPost2010Prop41ColorIndex
 90
       18
102
RTVSPost2010Prop41ColorRGB
 90
        0
102
RTVSPost2010PropOp41
 70
     1
102
RTVSPost2010Prop42
 90
       50
102
RTVSPost2010PropOp42
 70
     1
102
RTVSPost2010Prop43
 90
        3
102
RTVSPost2010PropOp43
 70
     1
102
RTVSPost2010Prop44ColorIndex
 90
        5
102
RTVSPost2010Prop44ColorRGB
 90
      255
102
RTVSPost2010PropOp44
 70
     1
102
RTVSPost2010Prop45
280
     0
102
RTVSPost2010PropOp45
 70
     1
102
RTVSPost2010Prop46
 90
       50
102
RTVSPost2010PropOp46
 70
     1
102
RTVSPost2010Prop47
 90
       50
102
RTVSPost2010PropOp47
 70
     1
102
RTVSPost2010Prop48
 90
       50
102
RTVSPost2010PropOp48
 70
     1
102
RTVSPost2010Prop49
280
     0
102
RTVSPost2010PropOp49
 70
     1
102
RTVSPost2010Prop50
 90
       50
102
RTVSPost2010PropOp50
 70
     1
102
RTVSPost2010Prop51ColorIndex
 90
      256
102
RTVSPost2010Prop51ColorRGB
 90
-16777216
102
RTVSPost2010PropOp51
 70
     0
102
RTVSPost2010Prop52
140
1.0
102
RTVSPost2010PropOp52
 70
     0
102
RTVSPost2010Prop53
 90
        2
102
RTVSPost2010PropOp53
 70
     1
102
RTVSPost2010Prop54
  1
strokes_ogs.tif
102
RTVSPost2010PropOp54
 70
     1
102
RTVSPost2010Prop55
280
     0
102
RTVSPost2010PropOp55
 70
     1
102
RTVSPost2010Prop56
140
1.0
102
RTVSPost2010PropOp56
 70
     1
102
RTVSPost2010Prop57
140
1.0
102
RTVSPost2010PropOp57
 70
     1
102
RTVSPropertyOp0
 70
     1
102
RTVSPropertyOp1
 70
     1
102
RTVSPropertyOp2
 70
     1
102
RTVSPropertyOp3
 70
     1
102
RTVSPropertyOp4
 70
     1
102
RTVSPropertyOp5
 70
     1
102
RTVSPropertyOp6
 70
     1
102
RTVSPropertyOp7
 70
     1
102
RTVSPropertyOp8
 70
     1
102
RTVSPropertyOp9
 70
     1
102
RTVSPropertyOp10
 70
     1
102
RTVSPropertyOp11
 70
     1
102
RTVSPropertyOp12
 70
     1
102
RTVSPropertyOp13
 70
     1
102
RTVSPropertyOp14
 70
     1
102
RTVSPropertyOp15
 70
     1
102
RTVSPropertyOp16
 70
     1
102
RTVSPropertyOp17
 70
     1
102
RTVSPropertyOp18
 70
     1
102
RTVSPropertyOp19
 70
     1
102
RTVSPropertyOp20
 70
     1
102
RTVSPropertyOp21
 70
     1
102
RTVSPropertyOp22
 70
     1
102
RTVSPropertyOp23
 70
     1
102
RTVSPropertyOp24
 70
     1
102
RTVSPropertyOp25
 70
     1
102
RTVSPropertyOp26
 70
     1
102
RTVSPropertyOp27
 70
     1
102
RTVSPropertyOp28
 70
     1
102
RTVSPropertyOp29
 70
     1
102
RTVSPropertyOp30
 70
     1
102
RTVSPropertyOp31
 70
     1
102
RTVSPropertyOp32
 70
     1
102
RTVSPropertyOp33
 70
     1
102
RTVSPropertyOp34
 70
     1
102
RTVSPropertyOp35
 70
     1
102
RTVSPropertyOp36
 70
     1
102
RTVSPropertyOp37
 70
     1
102
RTVSPropertyOp38
 70
     1
102
RTVSPropertyOp39
 70
     1
102
RTVSPropertyOp40
 70
     1
102
RTVSPropertyOp41
 70
     1
102
RTVSPropertyOp42
 70
     1
102
RTVSPropertyOp43
 70
     1
102
RTVSPropertyOp44
 70
     1
102
RTVSPropertyOp45
 70
     1
102
RTVSPropertyOp46
 70
     1
102
RTVSPropertyOp47
 70
     1
102
RTVSPropertyOp48
 70
     1
102
RTVSPropertyOp49
 70
     1
102
RTVSPropertyOp50
 70
     1
102
RTVSPropertyOp51
 70
     0
102
RTVSPropertyOp52
 70
     0
102
RTVSPropertyOp53
 70
     1
102
RTVSPropertyOp54
 70
     1
102
RTVSPropertyOp55
 70
     1
102
RTVSPropertyOp56
 70
     1
102
RTVSPropertyOp57
 70
     1
102
RTVSPropertyOp58
 70
     1
102
RTVSPropertyOp59
 70
     1
102
RTVSPropertyOp60
 70
     1
102
RTVSPropertyOp61
 70
     1
102
RTVSPropertyOp62
 70
     1
  0
XRECORD
  5
7B38
102
{ACAD_REACTORS
330
7B37
102
}
330
7B37
100
AcDbXrecord
280
     1
102
RTVSPost2010Prop28
280
     0
102
RTVSPost2010PropOp28
 70
     1
102
RTVSPost2010Prop29
280
     1
102
RTVSPost2010PropOp29
 70
     1
102
RTVSPost2010Prop30
280
     1
102
RTVSPost2010PropOp30
 70
     1
102
RTVSPost2010Prop31
280
     0
102
RTVSPost2010PropOp31
 70
     1
102
RTVSPost2010Prop32
280
     0
102
RTVSPost2010PropOp32
 70
     1
102
RTVSPost2010Prop33
280
     0
102
RTVSPost2010PropOp33
 70
     1
102
RTVSPost2010Prop34
280
     0
102
RTVSPost2010PropOp34
 70
     1
102
RTVSPost2010Prop35
280
     0
102
RTVSPost2010PropOp35
 70
     1
102
RTVSPost2010Prop36
280
     0
102
RTVSPost2010PropOp36
 70
     1
102
RTVSPost2010Prop37
 90
       50
102
RTVSPost2010PropOp37
 70
     1
102
RTVSPost2010Prop38
140
0.0
102
RTVSPost2010PropOp38
 70
     1
102
RTVSPost2010Prop39
140
1.0
102
RTVSPost2010PropOp39
 70
     1
102
RTVSPost2010Prop40
 90
        0
102
RTVSPost2010PropOp40
 70
     1
102
RTVSPost2010Prop41ColorIndex
 90
       18
102
RTVSPost2010Prop41ColorRGB
 90
        0
102
RTVSPost2010PropOp41
 70
     1
102
RTVSPost2010Prop42
 90
       50
102
RTVSPost2010PropOp42
 70
     1
102
RTVSPost2010Prop43
 90
        3
102
RTVSPost2010PropOp43
 70
     1
102
RTVSPost2010Prop44ColorIndex
 90
        5
102
RTVSPost2010Prop44ColorRGB
 90
      255
102
RTVSPost2010PropOp44
 70
     1
102
RTVSPost2010Prop45
280
     0
102
RTVSPost2010PropOp45
 70
     1
102
RTVSPost2010Prop46
 90
       50
102
RTVSPost2010PropOp46
 70
     1
102
RTVSPost2010Prop47
 90
       50
102
RTVSPost2010PropOp47
 70
     1
102
RTVSPost2010Prop48
 90
       50
102
RTVSPost2010PropOp48
 70
     1
102
RTVSPost2010Prop49
280
     0
102
RTVSPost2010PropOp49
 70
     1
102
RTVSPost2010Prop50
 90
       50
102
RTVSPost2010PropOp50
 70
     1
102
RTVSPost2010Prop51ColorIndex
 90
      256
102
RTVSPost2010Prop51ColorRGB
 90
-16777216
102
RTVSPost2010PropOp51
 70
     0
102
RTVSPost2010Prop52
140
1.0
102
RTVSPost2010PropOp52
 70
     0
102
RTVSPost2010Prop53
 90
        2
102
RTVSPost2010PropOp53
 70
     1
102
RTVSPost2010Prop54
  1
strokes_ogs.tif
102
RTVSPost2010PropOp54
 70
     1
102
RTVSPost2010Prop55
280
     0
102
RTVSPost2010PropOp55
 70
     1
102
RTVSPost2010Prop56
140
1.0
102
RTVSPost2010PropOp56
 70
     1
102
RTVSPost2010Prop57
140
1.0
102
RTVSPost2010PropOp57
 70
     1
102
RTVSPropertyOp0
 70
     1
102
RTVSPropertyOp1
 70
     1
102
RTVSPropertyOp2
 70
     1
102
RTVSPropertyOp3
 70
     1
102
RTVSPropertyOp4
 70
     1
102
RTVSPropertyOp5
 70
     1
102
RTVSPropertyOp6
 70
     1
102
RTVSPropertyOp7
 70
     1
102
RTVSPropertyOp8
 70
     1
102
RTVSPropertyOp9
 70
     1
102
RTVSPropertyOp10
 70
     1
102
RTVSPropertyOp11
 70
     1
102
RTVSPropertyOp12
 70
     1
102
RTVSPropertyOp13
 70
     1
102
RTVSPropertyOp14
 70
     1
102
RTVSPropertyOp15
 70
     1
102
RTVSPropertyOp16
 70
     1
102
RTVSPropertyOp17
 70
     1
102
RTVSPropertyOp18
 70
     1
102
RTVSPropertyOp19
 70
     1
102
RTVSPropertyOp20
 70
     1
102
RTVSPropertyOp21
 70
     1
102
RTVSPropertyOp22
 70
     1
102
RTVSPropertyOp23
 70
     1
102
RTVSPropertyOp24
 70
     1
102
RTVSPropertyOp25
 70
     1
102
RTVSPropertyOp26
 70
     1
102
RTVSPropertyOp27
 70
     1
102
RTVSPropertyOp28
 70
     1
102
RTVSPropertyOp29
 70
     1
102
RTVSPropertyOp30
 70
     1
102
RTVSPropertyOp31
 70
     1
102
RTVSPropertyOp32
 70
     1
102
RTVSPropertyOp33
 70
     1
102
RTVSPropertyOp34
 70
     1
102
RTVSPropertyOp35
 70
     1
102
RTVSPropertyOp36
 70
     1
102
RTVSPropertyOp37
 70
     1
102
RTVSPropertyOp38
 70
     1
102
RTVSPropertyOp39
 70
     1
102
RTVSPropertyOp40
 70
     1
102
RTVSPropertyOp41
 70
     1
102
RTVSPropertyOp42
 70
     1
102
RTVSPropertyOp43
 70
     1
102
RTVSPropertyOp44
 70
     1
102
RTVSPropertyOp45
 70
     1
102
RTVSPropertyOp46
 70
     1
102
RTVSPropertyOp47
 70
     1
102
RTVSPropertyOp48
 70
     1
102
RTVSPropertyOp49
 70
     1
102
RTVSPropertyOp50
 70
     1
102
RTVSPropertyOp51
 70
     0
102
RTVSPropertyOp52
 70
     0
102
RTVSPropertyOp53
 70
     1
102
RTVSPropertyOp54
 70
     1
102
RTVSPropertyOp55
 70
     1
102
RTVSPropertyOp56
 70
     1
102
RTVSPropertyOp57
 70
     1
102
RTVSPropertyOp58
 70
     1
102
RTVSPropertyOp59
 70
     1
102
RTVSPropertyOp60
 70
     1
102
RTVSPropertyOp61
 70
     1
102
RTVSPropertyOp62
 70
     1
  0
XRECORD
  5
7B3A
102
{ACAD_REACTORS
330
7B39
102
}
330
7B39
100
AcDbXrecord
280
     1
102
RTVSPost2010Prop28
280
     0
102
RTVSPost2010PropOp28
 70
     1
102
RTVSPost2010Prop29
280
     1
102
RTVSPost2010PropOp29
 70
     1
102
RTVSPost2010Prop30
280
     1
102
RTVSPost2010PropOp30
 70
     1
102
RTVSPost2010Prop31
280
     0
102
RTVSPost2010PropOp31
 70
     1
102
RTVSPost2010Prop32
280
     0
102
RTVSPost2010PropOp32
 70
     1
102
RTVSPost2010Prop33
280
     0
102
RTVSPost2010PropOp33
 70
     1
102
RTVSPost2010Prop34
280
     0
102
RTVSPost2010PropOp34
 70
     1
102
RTVSPost2010Prop35
280
     0
102
RTVSPost2010PropOp35
 70
     1
102
RTVSPost2010Prop36
280
     0
102
RTVSPost2010PropOp36
 70
     1
102
RTVSPost2010Prop37
 90
       50
102
RTVSPost2010PropOp37
 70
     1
102
RTVSPost2010Prop38
140
0.0
102
RTVSPost2010PropOp38
 70
     1
102
RTVSPost2010Prop39
140
1.0
102
RTVSPost2010PropOp39
 70
     1
102
RTVSPost2010Prop40
 90
        0
102
RTVSPost2010PropOp40
 70
     1
102
RTVSPost2010Prop41ColorIndex
 90
       18
102
RTVSPost2010Prop41ColorRGB
 90
        0
102
RTVSPost2010PropOp41
 70
     1
102
RTVSPost2010Prop42
 90
       50
102
RTVSPost2010PropOp42
 70
     1
102
RTVSPost2010Prop43
 90
        3
102
RTVSPost2010PropOp43
 70
     1
102
RTVSPost2010Prop44ColorIndex
 90
        5
102
RTVSPost2010Prop44ColorRGB
 90
      255
102
RTVSPost2010PropOp44
 70
     1
102
RTVSPost2010Prop45
280
     0
102
RTVSPost2010PropOp45
 70
     1
102
RTVSPost2010Prop46
 90
       50
102
RTVSPost2010PropOp46
 70
     1
102
RTVSPost2010Prop47
 90
       50
102
RTVSPost2010PropOp47
 70
     1
102
RTVSPost2010Prop48
 90
       50
102
RTVSPost2010PropOp48
 70
     1
102
RTVSPost2010Prop49
280
     0
102
RTVSPost2010PropOp49
 70
     1
102
RTVSPost2010Prop50
 90
       50
102
RTVSPost2010PropOp50
 70
     1
102
RTVSPost2010Prop51ColorIndex
 90
      256
102
RTVSPost2010Prop51ColorRGB
 90
-16777216
102
RTVSPost2010PropOp51
 70
     0
102
RTVSPost2010Prop52
140
1.0
102
RTVSPost2010PropOp52
 70
     0
102
RTVSPost2010Prop53
 90
        2
102
RTVSPost2010PropOp53
 70
     1
102
RTVSPost2010Prop54
  1
strokes_ogs.tif
102
RTVSPost2010PropOp54
 70
     1
102
RTVSPost2010Prop55
280
     0
102
RTVSPost2010PropOp55
 70
     1
102
RTVSPost2010Prop56
140
1.0
102
RTVSPost2010PropOp56
 70
     1
102
RTVSPost2010Prop57
140
1.0
102
RTVSPost2010PropOp57
 70
     1
102
RTVSPropertyOp0
 70
     1
102
RTVSPropertyOp1
 70
     1
102
RTVSPropertyOp2
 70
     1
102
RTVSPropertyOp3
 70
     1
102
RTVSPropertyOp4
 70
     1
102
RTVSPropertyOp5
 70
     1
102
RTVSPropertyOp6
 70
     1
102
RTVSPropertyOp7
 70
     1
102
RTVSPropertyOp8
 70
     1
102
RTVSPropertyOp9
 70
     1
102
RTVSPropertyOp10
 70
     1
102
RTVSPropertyOp11
 70
     1
102
RTVSPropertyOp12
 70
     1
102
RTVSPropertyOp13
 70
     1
102
RTVSPropertyOp14
 70
     1
102
RTVSPropertyOp15
 70
     1
102
RTVSPropertyOp16
 70
     1
102
RTVSPropertyOp17
 70
     1
102
RTVSPropertyOp18
 70
     1
102
RTVSPropertyOp19
 70
     1
102
RTVSPropertyOp20
 70
     1
102
RTVSPropertyOp21
 70
     1
102
RTVSPropertyOp22
 70
     1
102
RTVSPropertyOp23
 70
     1
102
RTVSPropertyOp24
 70
     1
102
RTVSPropertyOp25
 70
     1
102
RTVSPropertyOp26
 70
     1
102
RTVSPropertyOp27
 70
     1
102
RTVSPropertyOp28
 70
     1
102
RTVSPropertyOp29
 70
     1
102
RTVSPropertyOp30
 70
     1
102
RTVSPropertyOp31
 70
     1
102
RTVSPropertyOp32
 70
     1
102
RTVSPropertyOp33
 70
     1
102
RTVSPropertyOp34
 70
     1
102
RTVSPropertyOp35
 70
     1
102
RTVSPropertyOp36
 70
     1
102
RTVSPropertyOp37
 70
     1
102
RTVSPropertyOp38
 70
     1
102
RTVSPropertyOp39
 70
     1
102
RTVSPropertyOp40
 70
     1
102
RTVSPropertyOp41
 70
     1
102
RTVSPropertyOp42
 70
     1
102
RTVSPropertyOp43
 70
     1
102
RTVSPropertyOp44
 70
     1
102
RTVSPropertyOp45
 70
     1
102
RTVSPropertyOp46
 70
     1
102
RTVSPropertyOp47
 70
     1
102
RTVSPropertyOp48
 70
     1
102
RTVSPropertyOp49
 70
     1
102
RTVSPropertyOp50
 70
     1
102
RTVSPropertyOp51
 70
     0
102
RTVSPropertyOp52
 70
     0
102
RTVSPropertyOp53
 70
     1
102
RTVSPropertyOp54
 70
     1
102
RTVSPropertyOp55
 70
     1
102
RTVSPropertyOp56
 70
     1
102
RTVSPropertyOp57
 70
     1
102
RTVSPropertyOp58
 70
     1
102
RTVSPropertyOp59
 70
     1
102
RTVSPropertyOp60
 70
     1
102
RTVSPropertyOp61
 70
     1
102
RTVSPropertyOp62
 70
     1
  0
XRECORD
  5
7B3C
102
{ACAD_REACTORS
330
7B3B
102
}
330
7B3B
100
AcDbXrecord
280
     1
102
RTVSPost2010Prop28
280
     0
102
RTVSPost2010PropOp28
 70
     1
102
RTVSPost2010Prop29
280
     1
102
RTVSPost2010PropOp29
 70
     1
102
RTVSPost2010Prop30
280
     1
102
RTVSPost2010PropOp30
 70
     1
102
RTVSPost2010Prop31
280
     0
102
RTVSPost2010PropOp31
 70
     1
102
RTVSPost2010Prop32
280
     0
102
RTVSPost2010PropOp32
 70
     1
102
RTVSPost2010Prop33
280
     0
102
RTVSPost2010PropOp33
 70
     1
102
RTVSPost2010Prop34
280
     0
102
RTVSPost2010PropOp34
 70
     1
102
RTVSPost2010Prop35
280
     0
102
RTVSPost2010PropOp35
 70
     1
102
RTVSPost2010Prop36
280
     0
102
RTVSPost2010PropOp36
 70
     1
102
RTVSPost2010Prop37
 90
       50
102
RTVSPost2010PropOp37
 70
     1
102
RTVSPost2010Prop38
140
0.0
102
RTVSPost2010PropOp38
 70
     1
102
RTVSPost2010Prop39
140
1.0
102
RTVSPost2010PropOp39
 70
     1
102
RTVSPost2010Prop40
 90
        0
102
RTVSPost2010PropOp40
 70
     1
102
RTVSPost2010Prop41ColorIndex
 90
       18
102
RTVSPost2010Prop41ColorRGB
 90
        0
102
RTVSPost2010PropOp41
 70
     1
102
RTVSPost2010Prop42
 90
       50
102
RTVSPost2010PropOp42
 70
     1
102
RTVSPost2010Prop43
 90
        3
102
RTVSPost2010PropOp43
 70
     1
102
RTVSPost2010Prop44ColorIndex
 90
        5
102
RTVSPost2010Prop44ColorRGB
 90
      255
102
RTVSPost2010PropOp44
 70
     1
102
RTVSPost2010Prop45
280
     0
102
RTVSPost2010PropOp45
 70
     1
102
RTVSPost2010Prop46
 90
       50
102
RTVSPost2010PropOp46
 70
     1
102
RTVSPost2010Prop47
 90
       50
102
RTVSPost2010PropOp47
 70
     1
102
RTVSPost2010Prop48
 90
       50
102
RTVSPost2010PropOp48
 70
     1
102
RTVSPost2010Prop49
280
     0
102
RTVSPost2010PropOp49
 70
     1
102
RTVSPost2010Prop50
 90
       50
102
RTVSPost2010PropOp50
 70
     1
102
RTVSPost2010Prop51ColorIndex
 90
      256
102
RTVSPost2010Prop51ColorRGB
 90
-16777216
102
RTVSPost2010PropOp51
 70
     0
102
RTVSPost2010Prop52
140
1.0
102
RTVSPost2010PropOp52
 70
     0
102
RTVSPost2010Prop53
 90
        2
102
RTVSPost2010PropOp53
 70
     1
102
RTVSPost2010Prop54
  1
strokes_ogs.tif
102
RTVSPost2010PropOp54
 70
     1
102
RTVSPost2010Prop55
280
     0
102
RTVSPost2010PropOp55
 70
     1
102
RTVSPost2010Prop56
140
1.0
102
RTVSPost2010PropOp56
 70
     1
102
RTVSPost2010Prop57
140
1.0
102
RTVSPost2010PropOp57
 70
     1
102
RTVSPropertyOp0
 70
     1
102
RTVSPropertyOp1
 70
     1
102
RTVSPropertyOp2
 70
     1
102
RTVSPropertyOp3
 70
     1
102
RTVSPropertyOp4
 70
     1
102
RTVSPropertyOp5
 70
     1
102
RTVSPropertyOp6
 70
     1
102
RTVSPropertyOp7
 70
     1
102
RTVSPropertyOp8
 70
     1
102
RTVSPropertyOp9
 70
     1
102
RTVSPropertyOp10
 70
     1
102
RTVSPropertyOp11
 70
     1
102
RTVSPropertyOp12
 70
     1
102
RTVSPropertyOp13
 70
     1
102
RTVSPropertyOp14
 70
     1
102
RTVSPropertyOp15
 70
     1
102
RTVSPropertyOp16
 70
     1
102
RTVSPropertyOp17
 70
     1
102
RTVSPropertyOp18
 70
     1
102
RTVSPropertyOp19
 70
     1
102
RTVSPropertyOp20
 70
     1
102
RTVSPropertyOp21
 70
     1
102
RTVSPropertyOp22
 70
     1
102
RTVSPropertyOp23
 70
     1
102
RTVSPropertyOp24
 70
     1
102
RTVSPropertyOp25
 70
     1
102
RTVSPropertyOp26
 70
     1
102
RTVSPropertyOp27
 70
     1
102
RTVSPropertyOp28
 70
     1
102
RTVSPropertyOp29
 70
     1
102
RTVSPropertyOp30
 70
     1
102
RTVSPropertyOp31
 70
     1
102
RTVSPropertyOp32
 70
     1
102
RTVSPropertyOp33
 70
     1
102
RTVSPropertyOp34
 70
     1
102
RTVSPropertyOp35
 70
     1
102
RTVSPropertyOp36
 70
     1
102
RTVSPropertyOp37
 70
     1
102
RTVSPropertyOp38
 70
     1
102
RTVSPropertyOp39
 70
     1
102
RTVSPropertyOp40
 70
     1
102
RTVSPropertyOp41
 70
     1
102
RTVSPropertyOp42
 70
     1
102
RTVSPropertyOp43
 70
     1
102
RTVSPropertyOp44
 70
     1
102
RTVSPropertyOp45
 70
     1
102
RTVSPropertyOp46
 70
     1
102
RTVSPropertyOp47
 70
     1
102
RTVSPropertyOp48
 70
     1
102
RTVSPropertyOp49
 70
     1
102
RTVSPropertyOp50
 70
     1
102
RTVSPropertyOp51
 70
     0
102
RTVSPropertyOp52
 70
     0
102
RTVSPropertyOp53
 70
     1
102
RTVSPropertyOp54
 70
     1
102
RTVSPropertyOp55
 70
     1
102
RTVSPropertyOp56
 70
     1
102
RTVSPropertyOp57
 70
     1
102
RTVSPropertyOp58
 70
     1
102
RTVSPropertyOp59
 70
     1
102
RTVSPropertyOp60
 70
     1
102
RTVSPropertyOp61
 70
     1
102
RTVSPropertyOp62
 70
     1
  0
XRECORD
  5
7B44
102
{ACAD_REACTORS
330
7B43
102
}
330
7B43
100
AcDbXrecord
280
     1
102
RTVSPost2010Prop28
280
     0
102
RTVSPost2010PropOp28
 70
     1
102
RTVSPost2010Prop29
280
     1
102
RTVSPost2010PropOp29
 70
     1
102
RTVSPost2010Prop30
280
     1
102
RTVSPost2010PropOp30
 70
     1
102
RTVSPost2010Prop31
280
     0
102
RTVSPost2010PropOp31
 70
     1
102
RTVSPost2010Prop32
280
     0
102
RTVSPost2010PropOp32
 70
     1
102
RTVSPost2010Prop33
280
     0
102
RTVSPost2010PropOp33
 70
     1
102
RTVSPost2010Prop34
280
     0
102
RTVSPost2010PropOp34
 70
     1
102
RTVSPost2010Prop35
280
     0
102
RTVSPost2010PropOp35
 70
     1
102
RTVSPost2010Prop36
280
     0
102
RTVSPost2010PropOp36
 70
     1
102
RTVSPost2010Prop37
 90
       50
102
RTVSPost2010PropOp37
 70
     1
102
RTVSPost2010Prop38
140
0.0
102
RTVSPost2010PropOp38
 70
     1
102
RTVSPost2010Prop39
140
1.0
102
RTVSPost2010PropOp39
 70
     1
102
RTVSPost2010Prop40
 90
        0
102
RTVSPost2010PropOp40
 70
     1
102
RTVSPost2010Prop41ColorIndex
 90
       18
102
RTVSPost2010Prop41ColorRGB
 90
        0
102
RTVSPost2010PropOp41
 70
     1
102
RTVSPost2010Prop42
 90
       50
102
RTVSPost2010PropOp42
 70
     1
102
RTVSPost2010Prop43
 90
        3
102
RTVSPost2010PropOp43
 70
     1
102
RTVSPost2010Prop44ColorIndex
 90
        5
102
RTVSPost2010Prop44ColorRGB
 90
      255
102
RTVSPost2010PropOp44
 70
     1
102
RTVSPost2010Prop45
280
     0
102
RTVSPost2010PropOp45
 70
     1
102
RTVSPost2010Prop46
 90
       50
102
RTVSPost2010PropOp46
 70
     1
102
RTVSPost2010Prop47
 90
       50
102
RTVSPost2010PropOp47
 70
     1
102
RTVSPost2010Prop48
 90
       50
102
RTVSPost2010PropOp48
 70
     1
102
RTVSPost2010Prop49
280
     0
102
RTVSPost2010PropOp49
 70
     1
102
RTVSPost2010Prop50
 90
       50
102
RTVSPost2010PropOp50
 70
     1
102
RTVSPost2010Prop51ColorIndex
 90
      256
102
RTVSPost2010Prop51ColorRGB
 90
-16777216
102
RTVSPost2010PropOp51
 70
     0
102
RTVSPost2010Prop52
140
1.0
102
RTVSPost2010PropOp52
 70
     0
102
RTVSPost2010Prop53
 90
        2
102
RTVSPost2010PropOp53
 70
     1
102
RTVSPost2010Prop54
  1
strokes_ogs.tif
102
RTVSPost2010PropOp54
 70
     1
102
RTVSPost2010Prop55
280
     0
102
RTVSPost2010PropOp55
 70
     1
102
RTVSPost2010Prop56
140
1.0
102
RTVSPost2010PropOp56
 70
     1
102
RTVSPost2010Prop57
140
1.0
102
RTVSPost2010PropOp57
 70
     1
102
RTVSPropertyOp0
 70
     1
102
RTVSPropertyOp1
 70
     1
102
RTVSPropertyOp2
 70
     1
102
RTVSPropertyOp3
 70
     1
102
RTVSPropertyOp4
 70
     1
102
RTVSPropertyOp5
 70
     1
102
RTVSPropertyOp6
 70
     1
102
RTVSPropertyOp7
 70
     1
102
RTVSPropertyOp8
 70
     1
102
RTVSPropertyOp9
 70
     1
102
RTVSPropertyOp10
 70
     1
102
RTVSPropertyOp11
 70
     1
102
RTVSPropertyOp12
 70
     1
102
RTVSPropertyOp13
 70
     1
102
RTVSPropertyOp14
 70
     1
102
RTVSPropertyOp15
 70
     1
102
RTVSPropertyOp16
 70
     1
102
RTVSPropertyOp17
 70
     1
102
RTVSPropertyOp18
 70
     1
102
RTVSPropertyOp19
 70
     1
102
RTVSPropertyOp20
 70
     1
102
RTVSPropertyOp21
 70
     1
102
RTVSPropertyOp22
 70
     1
102
RTVSPropertyOp23
 70
     1
102
RTVSPropertyOp24
 70
     1
102
RTVSPropertyOp25
 70
     1
102
RTVSPropertyOp26
 70
     1
102
RTVSPropertyOp27
 70
     1
102
RTVSPropertyOp28
 70
     1
102
RTVSPropertyOp29
 70
     1
102
RTVSPropertyOp30
 70
     1
102
RTVSPropertyOp31
 70
     1
102
RTVSPropertyOp32
 70
     1
102
RTVSPropertyOp33
 70
     1
102
RTVSPropertyOp34
 70
     1
102
RTVSPropertyOp35
 70
     1
102
RTVSPropertyOp36
 70
     1
102
RTVSPropertyOp37
 70
     1
102
RTVSPropertyOp38
 70
     1
102
RTVSPropertyOp39
 70
     1
102
RTVSPropertyOp40
 70
     1
102
RTVSPropertyOp41
 70
     1
102
RTVSPropertyOp42
 70
     1
102
RTVSPropertyOp43
 70
     1
102
RTVSPropertyOp44
 70
     1
102
RTVSPropertyOp45
 70
     1
102
RTVSPropertyOp46
 70
     1
102
RTVSPropertyOp47
 70
     1
102
RTVSPropertyOp48
 70
     1
102
RTVSPropertyOp49
 70
     1
102
RTVSPropertyOp50
 70
     1
102
RTVSPropertyOp51
 70
     0
102
RTVSPropertyOp52
 70
     0
102
RTVSPropertyOp53
 70
     1
102
RTVSPropertyOp54
 70
     1
102
RTVSPropertyOp55
 70
     1
102
RTVSPropertyOp56
 70
     1
102
RTVSPropertyOp57
 70
     1
102
RTVSPropertyOp58
 70
     1
102
RTVSPropertyOp59
 70
     1
102
RTVSPropertyOp60
 70
     1
102
RTVSPropertyOp61
 70
     1
102
RTVSPropertyOp62
 70
     1
  0
XRECORD
  5
7B58
102
{ACAD_REACTORS
330
7B57
102
}
330
7B57
100
AcDbXrecord
280
     1
102
RTVSPost2010Prop28
280
     0
102
RTVSPost2010PropOp28
 70
     1
102
RTVSPost2010Prop29
280
     1
102
RTVSPost2010PropOp29
 70
     1
102
RTVSPost2010Prop30
280
     1
102
RTVSPost2010PropOp30
 70
     1
102
RTVSPost2010Prop31
280
     0
102
RTVSPost2010PropOp31
 70
     1
102
RTVSPost2010Prop32
280
     0
102
RTVSPost2010PropOp32
 70
     1
102
RTVSPost2010Prop33
280
     0
102
RTVSPost2010PropOp33
 70
     1
102
RTVSPost2010Prop34
280
     0
102
RTVSPost2010PropOp34
 70
     1
102
RTVSPost2010Prop35
280
     0
102
RTVSPost2010PropOp35
 70
     1
102
RTVSPost2010Prop36
280
     0
102
RTVSPost2010PropOp36
 70
     1
102
RTVSPost2010Prop37
 90
       50
102
RTVSPost2010PropOp37
 70
     1
102
RTVSPost2010Prop38
140
0.0
102
RTVSPost2010PropOp38
 70
     1
102
RTVSPost2010Prop39
140
1.0
102
RTVSPost2010PropOp39
 70
     1
102
RTVSPost2010Prop40
 90
        0
102
RTVSPost2010PropOp40
 70
     1
102
RTVSPost2010Prop41ColorIndex
 90
       18
102
RTVSPost2010Prop41ColorRGB
 90
        0
102
RTVSPost2010PropOp41
 70
     1
102
RTVSPost2010Prop42
 90
       50
102
RTVSPost2010PropOp42
 70
     1
102
RTVSPost2010Prop43
 90
        3
102
RTVSPost2010PropOp43
 70
     1
102
RTVSPost2010Prop44ColorIndex
 90
        5
102
RTVSPost2010Prop44ColorRGB
 90
      255
102
RTVSPost2010PropOp44
 70
     1
102
RTVSPost2010Prop45
280
     0
102
RTVSPost2010PropOp45
 70
     1
102
RTVSPost2010Prop46
 90
       50
102
RTVSPost2010PropOp46
 70
     1
102
RTVSPost2010Prop47
 90
       50
102
RTVSPost2010PropOp47
 70
     1
102
RTVSPost2010Prop48
 90
       50
102
RTVSPost2010PropOp48
 70
     1
102
RTVSPost2010Prop49
280
     0
102
RTVSPost2010PropOp49
 70
     1
102
RTVSPost2010Prop50
 90
       50
102
RTVSPost2010PropOp50
 70
     1
102
RTVSPost2010Prop51ColorIndex
 90
      256
102
RTVSPost2010Prop51ColorRGB
 90
-16777216
102
RTVSPost2010PropOp51
 70
     0
102
RTVSPost2010Prop52
140
1.0
102
RTVSPost2010PropOp52
 70
     0
102
RTVSPost2010Prop53
 90
        2
102
RTVSPost2010PropOp53
 70
     1
102
RTVSPost2010Prop54
  1
strokes_ogs.tif
102
RTVSPost2010PropOp54
 70
     1
102
RTVSPost2010Prop55
280
     0
102
RTVSPost2010PropOp55
 70
     1
102
RTVSPost2010Prop56
140
1.0
102
RTVSPost2010PropOp56
 70
     1
102
RTVSPost2010Prop57
140
1.0
102
RTVSPost2010PropOp57
 70
     1
102
RTVSPropertyOp0
 70
     0
102
RTVSPropertyOp1
 70
     0
102
RTVSPropertyOp2
 70
     0
102
RTVSPropertyOp3
 70
     0
102
RTVSPropertyOp4
 70
     0
102
RTVSPropertyOp5
 70
     0
102
RTVSPropertyOp6
 70
     0
102
RTVSPropertyOp7
 70
     0
102
RTVSPropertyOp8
 70
     0
102
RTVSPropertyOp9
 70
     0
102
RTVSPropertyOp10
 70
     0
102
RTVSPropertyOp11
 70
     0
102
RTVSPropertyOp12
 70
     0
102
RTVSPropertyOp13
 70
     0
102
RTVSPropertyOp14
 70
     2
102
RTVSPropertyOp15
 70
     0
102
RTVSPropertyOp16
 70
     0
102
RTVSPropertyOp17
 70
     0
102
RTVSPropertyOp18
 70
     0
102
RTVSPropertyOp19
 70
     0
102
RTVSPropertyOp20
 70
     0
102
RTVSPropertyOp21
 70
     0
102
RTVSPropertyOp22
 70
     0
102
RTVSPropertyOp23
 70
     0
102
RTVSPropertyOp24
 70
     0
102
RTVSPropertyOp25
 70
     0
102
RTVSPropertyOp26
 70
     0
102
RTVSPropertyOp27
 70
     0
102
RTVSPropertyOp28
 70
     1
102
RTVSPropertyOp29
 70
     1
102
RTVSPropertyOp30
 70
     1
102
RTVSPropertyOp31
 70
     1
102
RTVSPropertyOp32
 70
     1
102
RTVSPropertyOp33
 70
     1
102
RTVSPropertyOp34
 70
     1
102
RTVSPropertyOp35
 70
     1
102
RTVSPropertyOp36
 70
     1
102
RTVSPropertyOp37
 70
     1
102
RTVSPropertyOp38
 70
     1
102
RTVSPropertyOp39
 70
     1
102
RTVSPropertyOp40
 70
     1
102
RTVSPropertyOp41
 70
     1
102
RTVSPropertyOp42
 70
     1
102
RTVSPropertyOp43
 70
     1
102
RTVSPropertyOp44
 70
     1
102
RTVSPropertyOp45
 70
     1
102
RTVSPropertyOp46
 70
     1
102
RTVSPropertyOp47
 70
     1
102
RTVSPropertyOp48
 70
     1
102
RTVSPropertyOp49
 70
     1
102
RTVSPropertyOp50
 70
     1
102
RTVSPropertyOp51
 70
     0
102
RTVSPropertyOp52
 70
     0
102
RTVSPropertyOp53
 70
     1
102
RTVSPropertyOp54
 70
     1
102
RTVSPropertyOp55
 70
     1
102
RTVSPropertyOp56
 70
     1
102
RTVSPropertyOp57
 70
     1
102
RTVSPropertyOp58
 70
     1
102
RTVSPropertyOp59
 70
     1
102
RTVSPropertyOp60
 70
     1
102
RTVSPropertyOp61
 70
     1
102
RTVSPropertyOp62
 70
     1
  0
XRECORD
  5
7B50
102
{ACAD_REACTORS
330
7B4F
102
}
330
7B4F
100
AcDbXrecord
280
     1
102
RTVSPost2010Prop28
280
     0
102
RTVSPost2010PropOp28
 70
     1
102
RTVSPost2010Prop29
280
     1
102
RTVSPost2010PropOp29
 70
     1
102
RTVSPost2010Prop30
280
     1
102
RTVSPost2010PropOp30
 70
     1
102
RTVSPost2010Prop31
280
     0
102
RTVSPost2010PropOp31
 70
     1
102
RTVSPost2010Prop32
280
     0
102
RTVSPost2010PropOp32
 70
     1
102
RTVSPost2010Prop33
280
     0
102
RTVSPost2010PropOp33
 70
     1
102
RTVSPost2010Prop34
280
     0
102
RTVSPost2010PropOp34
 70
     1
102
RTVSPost2010Prop35
280
     0
102
RTVSPost2010PropOp35
 70
     1
102
RTVSPost2010Prop36
280
     0
102
RTVSPost2010PropOp36
 70
     1
102
RTVSPost2010Prop37
 90
       50
102
RTVSPost2010PropOp37
 70
     1
102
RTVSPost2010Prop38
140
0.0
102
RTVSPost2010PropOp38
 70
     1
102
RTVSPost2010Prop39
140
1.0
102
RTVSPost2010PropOp39
 70
     1
102
RTVSPost2010Prop40
 90
        0
102
RTVSPost2010PropOp40
 70
     1
102
RTVSPost2010Prop41ColorIndex
 90
       18
102
RTVSPost2010Prop41ColorRGB
 90
        0
102
RTVSPost2010PropOp41
 70
     1
102
RTVSPost2010Prop42
 90
       50
102
RTVSPost2010PropOp42
 70
     1
102
RTVSPost2010Prop43
 90
        3
102
RTVSPost2010PropOp43
 70
     1
102
RTVSPost2010Prop44ColorIndex
 90
        5
102
RTVSPost2010Prop44ColorRGB
 90
      255
102
RTVSPost2010PropOp44
 70
     1
102
RTVSPost2010Prop45
280
     0
102
RTVSPost2010PropOp45
 70
     1
102
RTVSPost2010Prop46
 90
       50
102
RTVSPost2010PropOp46
 70
     1
102
RTVSPost2010Prop47
 90
       50
102
RTVSPost2010PropOp47
 70
     1
102
RTVSPost2010Prop48
 90
       50
102
RTVSPost2010PropOp48
 70
     1
102
RTVSPost2010Prop49
280
     0
102
RTVSPost2010PropOp49
 70
     1
102
RTVSPost2010Prop50
 90
       50
102
RTVSPost2010PropOp50
 70
     1
102
RTVSPost2010Prop51ColorIndex
 90
      256
102
RTVSPost2010Prop51ColorRGB
 90
-16777216
102
RTVSPost2010PropOp51
 70
     0
102
RTVSPost2010Prop52
140
1.0
102
RTVSPost2010PropOp52
 70
     0
102
RTVSPost2010Prop53
 90
        2
102
RTVSPost2010PropOp53
 70
     1
102
RTVSPost2010Prop54
  1
strokes_ogs.tif
102
RTVSPost2010PropOp54
 70
     1
102
RTVSPost2010Prop55
280
     0
102
RTVSPost2010PropOp55
 70
     1
102
RTVSPost2010Prop56
140
1.0
102
RTVSPost2010PropOp56
 70
     1
102
RTVSPost2010Prop57
140
1.0
102
RTVSPost2010PropOp57
 70
     1
102
RTVSPropertyOp0
 70
     1
102
RTVSPropertyOp1
 70
     1
102
RTVSPropertyOp2
 70
     1
102
RTVSPropertyOp3
 70
     1
102
RTVSPropertyOp4
 70
     1
102
RTVSPropertyOp5
 70
     1
102
RTVSPropertyOp6
 70
     1
102
RTVSPropertyOp7
 70
     1
102
RTVSPropertyOp8
 70
     1
102
RTVSPropertyOp9
 70
     1
102
RTVSPropertyOp10
 70
     1
102
RTVSPropertyOp11
 70
     1
102
RTVSPropertyOp12
 70
     1
102
RTVSPropertyOp13
 70
     1
102
RTVSPropertyOp14
 70
     1
102
RTVSPropertyOp15
 70
     1
102
RTVSPropertyOp16
 70
     1
102
RTVSPropertyOp17
 70
     1
102
RTVSPropertyOp18
 70
     1
102
RTVSPropertyOp19
 70
     1
102
RTVSPropertyOp20
 70
     1
102
RTVSPropertyOp21
 70
     1
102
RTVSPropertyOp22
 70
     1
102
RTVSPropertyOp23
 70
     1
102
RTVSPropertyOp24
 70
     1
102
RTVSPropertyOp25
 70
     1
102
RTVSPropertyOp26
 70
     1
102
RTVSPropertyOp27
 70
     1
102
RTVSPropertyOp28
 70
     1
102
RTVSPropertyOp29
 70
     1
102
RTVSPropertyOp30
 70
     1
102
RTVSPropertyOp31
 70
     1
102
RTVSPropertyOp32
 70
     1
102
RTVSPropertyOp33
 70
     1
102
RTVSPropertyOp34
 70
     1
102
RTVSPropertyOp35
 70
     1
102
RTVSPropertyOp36
 70
     1
102
RTVSPropertyOp37
 70
     1
102
RTVSPropertyOp38
 70
     1
102
RTVSPropertyOp39
 70
     1
102
RTVSPropertyOp40
 70
     1
102
RTVSPropertyOp41
 70
     1
102
RTVSPropertyOp42
 70
     1
102
RTVSPropertyOp43
 70
     1
102
RTVSPropertyOp44
 70
     1
102
RTVSPropertyOp45
 70
     1
102
RTVSPropertyOp46
 70
     1
102
RTVSPropertyOp47
 70
     1
102
RTVSPropertyOp48
 70
     1
102
RTVSPropertyOp49
 70
     1
102
RTVSPropertyOp50
 70
     1
102
RTVSPropertyOp51
 70
     0
102
RTVSPropertyOp52
 70
     0
102
RTVSPropertyOp53
 70
     1
102
RTVSPropertyOp54
 70
     1
102
RTVSPropertyOp55
 70
     1
102
RTVSPropertyOp56
 70
     1
102
RTVSPropertyOp57
 70
     1
102
RTVSPropertyOp58
 70
     1
102
RTVSPropertyOp59
 70
     1
102
RTVSPropertyOp60
 70
     1
102
RTVSPropertyOp61
 70
     1
102
RTVSPropertyOp62
 70
     1
  0
XRECORD
  5
7B5A
102
{ACAD_REACTORS
330
7B59
102
}
330
7B59
100
AcDbXrecord
280
     1
102
RTVSPost2010Prop28
280
     0
102
RTVSPost2010PropOp28
 70
     1
102
RTVSPost2010Prop29
280
     1
102
RTVSPost2010PropOp29
 70
     1
102
RTVSPost2010Prop30
280
     1
102
RTVSPost2010PropOp30
 70
     1
102
RTVSPost2010Prop31
280
     0
102
RTVSPost2010PropOp31
 70
     1
102
RTVSPost2010Prop32
280
     0
102
RTVSPost2010PropOp32
 70
     1
102
RTVSPost2010Prop33
280
     0
102
RTVSPost2010PropOp33
 70
     1
102
RTVSPost2010Prop34
280
     0
102
RTVSPost2010PropOp34
 70
     1
102
RTVSPost2010Prop35
280
     0
102
RTVSPost2010PropOp35
 70
     1
102
RTVSPost2010Prop36
280
     0
102
RTVSPost2010PropOp36
 70
     1
102
RTVSPost2010Prop37
 90
       50
102
RTVSPost2010PropOp37
 70
     1
102
RTVSPost2010Prop38
140
0.0
102
RTVSPost2010PropOp38
 70
     1
102
RTVSPost2010Prop39
140
1.0
102
RTVSPost2010PropOp39
 70
     1
102
RTVSPost2010Prop40
 90
        0
102
RTVSPost2010PropOp40
 70
     1
102
RTVSPost2010Prop41ColorIndex
 90
       18
102
RTVSPost2010Prop41ColorRGB
 90
        0
102
RTVSPost2010PropOp41
 70
     1
102
RTVSPost2010Prop42
 90
       50
102
RTVSPost2010PropOp42
 70
     1
102
RTVSPost2010Prop43
 90
        3
102
RTVSPost2010PropOp43
 70
     1
102
RTVSPost2010Prop44ColorIndex
 90
        5
102
RTVSPost2010Prop44ColorRGB
 90
      255
102
RTVSPost2010PropOp44
 70
     1
102
RTVSPost2010Prop45
280
     0
102
RTVSPost2010PropOp45
 70
     1
102
RTVSPost2010Prop46
 90
       50
102
RTVSPost2010PropOp46
 70
     1
102
RTVSPost2010Prop47
 90
       50
102
RTVSPost2010PropOp47
 70
     1
102
RTVSPost2010Prop48
 90
       50
102
RTVSPost2010PropOp48
 70
     1
102
RTVSPost2010Prop49
280
     0
102
RTVSPost2010PropOp49
 70
     1
102
RTVSPost2010Prop50
 90
       50
102
RTVSPost2010PropOp50
 70
     1
102
RTVSPost2010Prop51ColorIndex
 90
      256
102
RTVSPost2010Prop51ColorRGB
 90
-16777216
102
RTVSPost2010PropOp51
 70
     0
102
RTVSPost2010Prop52
140
1.0
102
RTVSPost2010PropOp52
 70
     0
102
RTVSPost2010Prop53
 90
        2
102
RTVSPost2010PropOp53
 70
     1
102
RTVSPost2010Prop54
  1
strokes_ogs.tif
102
RTVSPost2010PropOp54
 70
     1
102
RTVSPost2010Prop55
280
     0
102
RTVSPost2010PropOp55
 70
     1
102
RTVSPost2010Prop56
140
1.0
102
RTVSPost2010PropOp56
 70
     1
102
RTVSPost2010Prop57
140
1.0
102
RTVSPost2010PropOp57
 70
     1
102
RTVSPropertyOp0
 70
     0
102
RTVSPropertyOp1
 70
     0
102
RTVSPropertyOp2
 70
     0
102
RTVSPropertyOp3
 70
     0
102
RTVSPropertyOp4
 70
     0
102
RTVSPropertyOp5
 70
     0
102
RTVSPropertyOp6
 70
     0
102
RTVSPropertyOp7
 70
     0
102
RTVSPropertyOp8
 70
     0
102
RTVSPropertyOp9
 70
     0
102
RTVSPropertyOp10
 70
     0
102
RTVSPropertyOp11
 70
     0
102
RTVSPropertyOp12
 70
     0
102
RTVSPropertyOp13
 70
     0
102
RTVSPropertyOp14
 70
     2
102
RTVSPropertyOp15
 70
     0
102
RTVSPropertyOp16
 70
     0
102
RTVSPropertyOp17
 70
     0
102
RTVSPropertyOp18
 70
     0
102
RTVSPropertyOp19
 70
     0
102
RTVSPropertyOp20
 70
     0
102
RTVSPropertyOp21
 70
     0
102
RTVSPropertyOp22
 70
     0
102
RTVSPropertyOp23
 70
     0
102
RTVSPropertyOp24
 70
     0
102
RTVSPropertyOp25
 70
     0
102
RTVSPropertyOp26
 70
     0
102
RTVSPropertyOp27
 70
     0
102
RTVSPropertyOp28
 70
     1
102
RTVSPropertyOp29
 70
     1
102
RTVSPropertyOp30
 70
     1
102
RTVSPropertyOp31
 70
     1
102
RTVSPropertyOp32
 70
     1
102
RTVSPropertyOp33
 70
     1
102
RTVSPropertyOp34
 70
     1
102
RTVSPropertyOp35
 70
     1
102
RTVSPropertyOp36
 70
     1
102
RTVSPropertyOp37
 70
     1
102
RTVSPropertyOp38
 70
     1
102
RTVSPropertyOp39
 70
     1
102
RTVSPropertyOp40
 70
     1
102
RTVSPropertyOp41
 70
     1
102
RTVSPropertyOp42
 70
     1
102
RTVSPropertyOp43
 70
     1
102
RTVSPropertyOp44
 70
     1
102
RTVSPropertyOp45
 70
     1
102
RTVSPropertyOp46
 70
     1
102
RTVSPropertyOp47
 70
     1
102
RTVSPropertyOp48
 70
     1
102
RTVSPropertyOp49
 70
     1
102
RTVSPropertyOp50
 70
     1
102
RTVSPropertyOp51
 70
     0
102
RTVSPropertyOp52
 70
     0
102
RTVSPropertyOp53
 70
     1
102
RTVSPropertyOp54
 70
     1
102
RTVSPropertyOp55
 70
     1
102
RTVSPropertyOp56
 70
     1
102
RTVSPropertyOp57
 70
     1
102
RTVSPropertyOp58
 70
     1
102
RTVSPropertyOp59
 70
     1
102
RTVSPropertyOp60
 70
     1
102
RTVSPropertyOp61
 70
     1
102
RTVSPropertyOp62
 70
     1
  0
XRECORD
  5
7B48
102
{ACAD_REACTORS
330
7B47
102
}
330
7B47
100
AcDbXrecord
280
     1
102
RTVSPost2010Prop28
280
     0
102
RTVSPost2010PropOp28
 70
     1
102
RTVSPost2010Prop29
280
     1
102
RTVSPost2010PropOp29
 70
     1
102
RTVSPost2010Prop30
280
     1
102
RTVSPost2010PropOp30
 70
     1
102
RTVSPost2010Prop31
280
     0
102
RTVSPost2010PropOp31
 70
     1
102
RTVSPost2010Prop32
280
     0
102
RTVSPost2010PropOp32
 70
     1
102
RTVSPost2010Prop33
280
     0
102
RTVSPost2010PropOp33
 70
     1
102
RTVSPost2010Prop34
280
     0
102
RTVSPost2010PropOp34
 70
     1
102
RTVSPost2010Prop35
280
     0
102
RTVSPost2010PropOp35
 70
     1
102
RTVSPost2010Prop36
280
     0
102
RTVSPost2010PropOp36
 70
     1
102
RTVSPost2010Prop37
 90
       50
102
RTVSPost2010PropOp37
 70
     1
102
RTVSPost2010Prop38
140
0.0
102
RTVSPost2010PropOp38
 70
     1
102
RTVSPost2010Prop39
140
1.0
102
RTVSPost2010PropOp39
 70
     1
102
RTVSPost2010Prop40
 90
        0
102
RTVSPost2010PropOp40
 70
     1
102
RTVSPost2010Prop41ColorIndex
 90
       18
102
RTVSPost2010Prop41ColorRGB
 90
        0
102
RTVSPost2010PropOp41
 70
     1
102
RTVSPost2010Prop42
 90
       50
102
RTVSPost2010PropOp42
 70
     1
102
RTVSPost2010Prop43
 90
        3
102
RTVSPost2010PropOp43
 70
     1
102
RTVSPost2010Prop44ColorIndex
 90
        5
102
RTVSPost2010Prop44ColorRGB
 90
      255
102
RTVSPost2010PropOp44
 70
     1
102
RTVSPost2010Prop45
280
     0
102
RTVSPost2010PropOp45
 70
     1
102
RTVSPost2010Prop46
 90
       50
102
RTVSPost2010PropOp46
 70
     1
102
RTVSPost2010Prop47
 90
       50
102
RTVSPost2010PropOp47
 70
     1
102
RTVSPost2010Prop48
 90
       50
102
RTVSPost2010PropOp48
 70
     1
102
RTVSPost2010Prop49
280
     0
102
RTVSPost2010PropOp49
 70
     1
102
RTVSPost2010Prop50
 90
       50
102
RTVSPost2010PropOp50
 70
     1
102
RTVSPost2010Prop51ColorIndex
 90
      256
102
RTVSPost2010Prop51ColorRGB
 90
-16777216
102
RTVSPost2010PropOp51
 70
     0
102
RTVSPost2010Prop52
140
1.0
102
RTVSPost2010PropOp52
 70
     0
102
RTVSPost2010Prop53
 90
        2
102
RTVSPost2010PropOp53
 70
     1
102
RTVSPost2010Prop54
  1
strokes_ogs.tif
102
RTVSPost2010PropOp54
 70
     1
102
RTVSPost2010Prop55
280
     0
102
RTVSPost2010PropOp55
 70
     1
102
RTVSPost2010Prop56
140
1.0
102
RTVSPost2010PropOp56
 70
     1
102
RTVSPost2010Prop57
140
1.0
102
RTVSPost2010PropOp57
 70
     1
102
RTVSPropertyOp0
 70
     1
102
RTVSPropertyOp1
 70
     1
102
RTVSPropertyOp2
 70
     1
102
RTVSPropertyOp3
 70
     1
102
RTVSPropertyOp4
 70
     1
102
RTVSPropertyOp5
 70
     1
102
RTVSPropertyOp6
 70
     1
102
RTVSPropertyOp7
 70
     1
102
RTVSPropertyOp8
 70
     1
102
RTVSPropertyOp9
 70
     1
102
RTVSPropertyOp10
 70
     1
102
RTVSPropertyOp11
 70
     1
102
RTVSPropertyOp12
 70
     1
102
RTVSPropertyOp13
 70
     1
102
RTVSPropertyOp14
 70
     1
102
RTVSPropertyOp15
 70
     1
102
RTVSPropertyOp16
 70
     1
102
RTVSPropertyOp17
 70
     1
102
RTVSPropertyOp18
 70
     1
102
RTVSPropertyOp19
 70
     1
102
RTVSPropertyOp20
 70
     1
102
RTVSPropertyOp21
 70
     1
102
RTVSPropertyOp22
 70
     1
102
RTVSPropertyOp23
 70
     1
102
RTVSPropertyOp24
 70
     1
102
RTVSPropertyOp25
 70
     1
102
RTVSPropertyOp26
 70
     1
102
RTVSPropertyOp27
 70
     1
102
RTVSPropertyOp28
 70
     1
102
RTVSPropertyOp29
 70
     1
102
RTVSPropertyOp30
 70
     1
102
RTVSPropertyOp31
 70
     1
102
RTVSPropertyOp32
 70
     1
102
RTVSPropertyOp33
 70
     1
102
RTVSPropertyOp34
 70
     1
102
RTVSPropertyOp35
 70
     1
102
RTVSPropertyOp36
 70
     1
102
RTVSPropertyOp37
 70
     1
102
RTVSPropertyOp38
 70
     1
102
RTVSPropertyOp39
 70
     1
102
RTVSPropertyOp40
 70
     1
102
RTVSPropertyOp41
 70
     1
102
RTVSPropertyOp42
 70
     1
102
RTVSPropertyOp43
 70
     1
102
RTVSPropertyOp44
 70
     1
102
RTVSPropertyOp45
 70
     1
102
RTVSPropertyOp46
 70
     1
102
RTVSPropertyOp47
 70
     1
102
RTVSPropertyOp48
 70
     1
102
RTVSPropertyOp49
 70
     1
102
RTVSPropertyOp50
 70
     1
102
RTVSPropertyOp51
 70
     0
102
RTVSPropertyOp52
 70
     0
102
RTVSPropertyOp53
 70
     1
102
RTVSPropertyOp54
 70
     1
102
RTVSPropertyOp55
 70
     1
102
RTVSPropertyOp56
 70
     1
102
RTVSPropertyOp57
 70
     1
102
RTVSPropertyOp58
 70
     1
102
RTVSPropertyOp59
 70
     1
102
RTVSPropertyOp60
 70
     1
102
RTVSPropertyOp61
 70
     1
102
RTVSPropertyOp62
 70
     1
  0
XRECORD
  5
7B66
102
{ACAD_REACTORS
330
7B65
102
}
330
7B65
100
AcDbXrecord
280
     1
102
RTVSPost2010Prop28
280
     0
102
RTVSPost2010PropOp28
 70
     1
102
RTVSPost2010Prop29
280
     1
102
RTVSPost2010PropOp29
 70
     1
102
RTVSPost2010Prop30
280
     1
102
RTVSPost2010PropOp30
 70
     1
102
RTVSPost2010Prop31
280
     0
102
RTVSPost2010PropOp31
 70
     1
102
RTVSPost2010Prop32
280
     0
102
RTVSPost2010PropOp32
 70
     1
102
RTVSPost2010Prop33
280
     0
102
RTVSPost2010PropOp33
 70
     1
102
RTVSPost2010Prop34
280
     0
102
RTVSPost2010PropOp34
 70
     1
102
RTVSPost2010Prop35
280
     0
102
RTVSPost2010PropOp35
 70
     1
102
RTVSPost2010Prop36
280
     0
102
RTVSPost2010PropOp36
 70
     1
102
RTVSPost2010Prop37
 90
       50
102
RTVSPost2010PropOp37
 70
     1
102
RTVSPost2010Prop38
140
0.0
102
RTVSPost2010PropOp38
 70
     1
102
RTVSPost2010Prop39
140
1.0
102
RTVSPost2010PropOp39
 70
     1
102
RTVSPost2010Prop40
 90
        0
102
RTVSPost2010PropOp40
 70
     1
102
RTVSPost2010Prop41ColorIndex
 90
       18
102
RTVSPost2010Prop41ColorRGB
 90
        0
102
RTVSPost2010PropOp41
 70
     1
102
RTVSPost2010Prop42
 90
       50
102
RTVSPost2010PropOp42
 70
     1
102
RTVSPost2010Prop43
 90
        3
102
RTVSPost2010PropOp43
 70
     1
102
RTVSPost2010Prop44ColorIndex
 90
        5
102
RTVSPost2010Prop44ColorRGB
 90
      255
102
RTVSPost2010PropOp44
 70
     1
102
RTVSPost2010Prop45
280
     0
102
RTVSPost2010PropOp45
 70
     1
102
RTVSPost2010Prop46
 90
       50
102
RTVSPost2010PropOp46
 70
     1
102
RTVSPost2010Prop47
 90
       50
102
RTVSPost2010PropOp47
 70
     1
102
RTVSPost2010Prop48
 90
       50
102
RTVSPost2010PropOp48
 70
     1
102
RTVSPost2010Prop49
280
     0
102
RTVSPost2010PropOp49
 70
     1
102
RTVSPost2010Prop50
 90
       50
102
RTVSPost2010PropOp50
 70
     1
102
RTVSPost2010Prop51ColorIndex
 90
      256
102
RTVSPost2010Prop51ColorRGB
 90
-16777216
102
RTVSPost2010PropOp51
 70
     0
102
RTVSPost2010Prop52
140
1.0
102
RTVSPost2010PropOp52
 70
     0
102
RTVSPost2010Prop53
 90
        2
102
RTVSPost2010PropOp53
 70
     1
102
RTVSPost2010Prop54
  1
strokes_ogs.tif
102
RTVSPost2010PropOp54
 70
     1
102
RTVSPost2010Prop55
280
     0
102
RTVSPost2010PropOp55
 70
     1
102
RTVSPost2010Prop56
140
1.0
102
RTVSPost2010PropOp56
 70
     1
102
RTVSPost2010Prop57
140
1.0
102
RTVSPost2010PropOp57
 70
     1
102
RTVSPropertyOp0
 70
     1
102
RTVSPropertyOp1
 70
     1
102
RTVSPropertyOp2
 70
     1
102
RTVSPropertyOp3
 70
     1
102
RTVSPropertyOp4
 70
     1
102
RTVSPropertyOp5
 70
     1
102
RTVSPropertyOp6
 70
     1
102
RTVSPropertyOp7
 70
     1
102
RTVSPropertyOp8
 70
     1
102
RTVSPropertyOp9
 70
     1
102
RTVSPropertyOp10
 70
     1
102
RTVSPropertyOp11
 70
     1
102
RTVSPropertyOp12
 70
     1
102
RTVSPropertyOp13
 70
     1
102
RTVSPropertyOp14
 70
     1
102
RTVSPropertyOp15
 70
     1
102
RTVSPropertyOp16
 70
     1
102
RTVSPropertyOp17
 70
     1
102
RTVSPropertyOp18
 70
     1
102
RTVSPropertyOp19
 70
     1
102
RTVSPropertyOp20
 70
     1
102
RTVSPropertyOp21
 70
     1
102
RTVSPropertyOp22
 70
     1
102
RTVSPropertyOp23
 70
     1
102
RTVSPropertyOp24
 70
     1
102
RTVSPropertyOp25
 70
     1
102
RTVSPropertyOp26
 70
     1
102
RTVSPropertyOp27
 70
     1
102
RTVSPropertyOp28
 70
     1
102
RTVSPropertyOp29
 70
     1
102
RTVSPropertyOp30
 70
     1
102
RTVSPropertyOp31
 70
     1
102
RTVSPropertyOp32
 70
     1
102
RTVSPropertyOp33
 70
     1
102
RTVSPropertyOp34
 70
     1
102
RTVSPropertyOp35
 70
     1
102
RTVSPropertyOp36
 70
     1
102
RTVSPropertyOp37
 70
     1
102
RTVSPropertyOp38
 70
     1
102
RTVSPropertyOp39
 70
     1
102
RTVSPropertyOp40
 70
     1
102
RTVSPropertyOp41
 70
     1
102
RTVSPropertyOp42
 70
     1
102
RTVSPropertyOp43
 70
     1
102
RTVSPropertyOp44
 70
     1
102
RTVSPropertyOp45
 70
     1
102
RTVSPropertyOp46
 70
     1
102
RTVSPropertyOp47
 70
     1
102
RTVSPropertyOp48
 70
     1
102
RTVSPropertyOp49
 70
     1
102
RTVSPropertyOp50
 70
     1
102
RTVSPropertyOp51
 70
     0
102
RTVSPropertyOp52
 70
     0
102
RTVSPropertyOp53
 70
     1
102
RTVSPropertyOp54
 70
     1
102
RTVSPropertyOp55
 70
     1
102
RTVSPropertyOp56
 70
     1
102
RTVSPropertyOp57
 70
     1
102
RTVSPropertyOp58
 70
     1
102
RTVSPropertyOp59
 70
     1
102
RTVSPropertyOp60
 70
     1
102
RTVSPropertyOp61
 70
     1
102
RTVSPropertyOp62
 70
     1
  0
XRECORD
  5
7B64
102
{ACAD_REACTORS
330
7B63
102
}
330
7B63
100
AcDbXrecord
280
     1
102
RTVSPost2010Prop28
280
     0
102
RTVSPost2010PropOp28
 70
     1
102
RTVSPost2010Prop29
280
     1
102
RTVSPost2010PropOp29
 70
     1
102
RTVSPost2010Prop30
280
     1
102
RTVSPost2010PropOp30
 70
     1
102
RTVSPost2010Prop31
280
     0
102
RTVSPost2010PropOp31
 70
     1
102
RTVSPost2010Prop32
280
     0
102
RTVSPost2010PropOp32
 70
     1
102
RTVSPost2010Prop33
280
     0
102
RTVSPost2010PropOp33
 70
     1
102
RTVSPost2010Prop34
280
     0
102
RTVSPost2010PropOp34
 70
     1
102
RTVSPost2010Prop35
280
     0
102
RTVSPost2010PropOp35
 70
     1
102
RTVSPost2010Prop36
280
     0
102
RTVSPost2010PropOp36
 70
     1
102
RTVSPost2010Prop37
 90
       50
102
RTVSPost2010PropOp37
 70
     1
102
RTVSPost2010Prop38
140
0.0
102
RTVSPost2010PropOp38
 70
     1
102
RTVSPost2010Prop39
140
1.0
102
RTVSPost2010PropOp39
 70
     1
102
RTVSPost2010Prop40
 90
        0
102
RTVSPost2010PropOp40
 70
     1
102
RTVSPost2010Prop41ColorIndex
 90
       18
102
RTVSPost2010Prop41ColorRGB
 90
        0
102
RTVSPost2010PropOp41
 70
     1
102
RTVSPost2010Prop42
 90
       50
102
RTVSPost2010PropOp42
 70
     1
102
RTVSPost2010Prop43
 90
        3
102
RTVSPost2010PropOp43
 70
     1
102
RTVSPost2010Prop44ColorIndex
 90
        5
102
RTVSPost2010Prop44ColorRGB
 90
      255
102
RTVSPost2010PropOp44
 70
     1
102
RTVSPost2010Prop45
280
     0
102
RTVSPost2010PropOp45
 70
     1
102
RTVSPost2010Prop46
 90
       50
102
RTVSPost2010PropOp46
 70
     1
102
RTVSPost2010Prop47
 90
       50
102
RTVSPost2010PropOp47
 70
     1
102
RTVSPost2010Prop48
 90
       50
102
RTVSPost2010PropOp48
 70
     1
102
RTVSPost2010Prop49
280
     0
102
RTVSPost2010PropOp49
 70
     1
102
RTVSPost2010Prop50
 90
       50
102
RTVSPost2010PropOp50
 70
     1
102
RTVSPost2010Prop51ColorIndex
 90
      256
102
RTVSPost2010Prop51ColorRGB
 90
-16777216
102
RTVSPost2010PropOp51
 70
     0
102
RTVSPost2010Prop52
140
1.0
102
RTVSPost2010PropOp52
 70
     0
102
RTVSPost2010Prop53
 90
        2
102
RTVSPost2010PropOp53
 70
     1
102
RTVSPost2010Prop54
  1
strokes_ogs.tif
102
RTVSPost2010PropOp54
 70
     1
102
RTVSPost2010Prop55
280
     0
102
RTVSPost2010PropOp55
 70
     1
102
RTVSPost2010Prop56
140
1.0
102
RTVSPost2010PropOp56
 70
     1
102
RTVSPost2010Prop57
140
1.0
102
RTVSPost2010PropOp57
 70
     1
102
RTVSPropertyOp0
 70
     1
102
RTVSPropertyOp1
 70
     1
102
RTVSPropertyOp2
 70
     1
102
RTVSPropertyOp3
 70
     1
102
RTVSPropertyOp4
 70
     1
102
RTVSPropertyOp5
 70
     1
102
RTVSPropertyOp6
 70
     1
102
RTVSPropertyOp7
 70
     1
102
RTVSPropertyOp8
 70
     1
102
RTVSPropertyOp9
 70
     1
102
RTVSPropertyOp10
 70
     1
102
RTVSPropertyOp11
 70
     1
102
RTVSPropertyOp12
 70
     1
102
RTVSPropertyOp13
 70
     1
102
RTVSPropertyOp14
 70
     1
102
RTVSPropertyOp15
 70
     1
102
RTVSPropertyOp16
 70
     1
102
RTVSPropertyOp17
 70
     1
102
RTVSPropertyOp18
 70
     1
102
RTVSPropertyOp19
 70
     1
102
RTVSPropertyOp20
 70
     1
102
RTVSPropertyOp21
 70
     1
102
RTVSPropertyOp22
 70
     1
102
RTVSPropertyOp23
 70
     1
102
RTVSPropertyOp24
 70
     1
102
RTVSPropertyOp25
 70
     1
102
RTVSPropertyOp26
 70
     1
102
RTVSPropertyOp27
 70
     1
102
RTVSPropertyOp28
 70
     1
102
RTVSPropertyOp29
 70
     1
102
RTVSPropertyOp30
 70
     1
102
RTVSPropertyOp31
 70
     1
102
RTVSPropertyOp32
 70
     1
102
RTVSPropertyOp33
 70
     1
102
RTVSPropertyOp34
 70
     1
102
RTVSPropertyOp35
 70
     1
102
RTVSPropertyOp36
 70
     1
102
RTVSPropertyOp37
 70
     1
102
RTVSPropertyOp38
 70
     1
102
RTVSPropertyOp39
 70
     1
102
RTVSPropertyOp40
 70
     1
102
RTVSPropertyOp41
 70
     1
102
RTVSPropertyOp42
 70
     1
102
RTVSPropertyOp43
 70
     1
102
RTVSPropertyOp44
 70
     1
102
RTVSPropertyOp45
 70
     1
102
RTVSPropertyOp46
 70
     1
102
RTVSPropertyOp47
 70
     1
102
RTVSPropertyOp48
 70
     1
102
RTVSPropertyOp49
 70
     1
102
RTVSPropertyOp50
 70
     1
102
RTVSPropertyOp51
 70
     0
102
RTVSPropertyOp52
 70
     0
102
RTVSPropertyOp53
 70
     1
102
RTVSPropertyOp54
 70
     1
102
RTVSPropertyOp55
 70
     1
102
RTVSPropertyOp56
 70
     1
102
RTVSPropertyOp57
 70
     1
102
RTVSPropertyOp58
 70
     1
102
RTVSPropertyOp59
 70
     1
102
RTVSPropertyOp60
 70
     1
102
RTVSPropertyOp61
 70
     1
102
RTVSPropertyOp62
 70
     1
  0
XRECORD
  5
7B5E
102
{ACAD_REACTORS
330
7B5D
102
}
330
7B5D
100
AcDbXrecord
280
     1
102
RTVSPost2010Prop28
280
     0
102
RTVSPost2010PropOp28
 70
     1
102
RTVSPost2010Prop29
280
     1
102
RTVSPost2010PropOp29
 70
     1
102
RTVSPost2010Prop30
280
     1
102
RTVSPost2010PropOp30
 70
     1
102
RTVSPost2010Prop31
280
     0
102
RTVSPost2010PropOp31
 70
     1
102
RTVSPost2010Prop32
280
     0
102
RTVSPost2010PropOp32
 70
     1
102
RTVSPost2010Prop33
280
     0
102
RTVSPost2010PropOp33
 70
     1
102
RTVSPost2010Prop34
280
     0
102
RTVSPost2010PropOp34
 70
     1
102
RTVSPost2010Prop35
280
     0
102
RTVSPost2010PropOp35
 70
     1
102
RTVSPost2010Prop36
280
     0
102
RTVSPost2010PropOp36
 70
     1
102
RTVSPost2010Prop37
 90
       50
102
RTVSPost2010PropOp37
 70
     1
102
RTVSPost2010Prop38
140
0.0
102
RTVSPost2010PropOp38
 70
     1
102
RTVSPost2010Prop39
140
1.0
102
RTVSPost2010PropOp39
 70
     1
102
RTVSPost2010Prop40
 90
        0
102
RTVSPost2010PropOp40
 70
     1
102
RTVSPost2010Prop41ColorIndex
 90
       18
102
RTVSPost2010Prop41ColorRGB
 90
        0
102
RTVSPost2010PropOp41
 70
     1
102
RTVSPost2010Prop42
 90
       50
102
RTVSPost2010PropOp42
 70
     1
102
RTVSPost2010Prop43
 90
        3
102
RTVSPost2010PropOp43
 70
     1
102
RTVSPost2010Prop44ColorIndex
 90
        5
102
RTVSPost2010Prop44ColorRGB
 90
      255
102
RTVSPost2010PropOp44
 70
     1
102
RTVSPost2010Prop45
280
     0
102
RTVSPost2010PropOp45
 70
     1
102
RTVSPost2010Prop46
 90
       50
102
RTVSPost2010PropOp46
 70
     1
102
RTVSPost2010Prop47
 90
       50
102
RTVSPost2010PropOp47
 70
     1
102
RTVSPost2010Prop48
 90
       50
102
RTVSPost2010PropOp48
 70
     1
102
RTVSPost2010Prop49
280
     0
102
RTVSPost2010PropOp49
 70
     1
102
RTVSPost2010Prop50
 90
       50
102
RTVSPost2010PropOp50
 70
     1
102
RTVSPost2010Prop51ColorIndex
 90
      256
102
RTVSPost2010Prop51ColorRGB
 90
-16777216
102
RTVSPost2010PropOp51
 70
     0
102
RTVSPost2010Prop52
140
1.0
102
RTVSPost2010PropOp52
 70
     0
102
RTVSPost2010Prop53
 90
        2
102
RTVSPost2010PropOp53
 70
     1
102
RTVSPost2010Prop54
  1
strokes_ogs.tif
102
RTVSPost2010PropOp54
 70
     1
102
RTVSPost2010Prop55
280
     0
102
RTVSPost2010PropOp55
 70
     1
102
RTVSPost2010Prop56
140
1.0
102
RTVSPost2010PropOp56
 70
     1
102
RTVSPost2010Prop57
140
1.0
102
RTVSPost2010PropOp57
 70
     1
102
RTVSPropertyOp0
 70
     1
102
RTVSPropertyOp1
 70
     1
102
RTVSPropertyOp2
 70
     1
102
RTVSPropertyOp3
 70
     1
102
RTVSPropertyOp4
 70
     1
102
RTVSPropertyOp5
 70
     1
102
RTVSPropertyOp6
 70
     1
102
RTVSPropertyOp7
 70
     1
102
RTVSPropertyOp8
 70
     1
102
RTVSPropertyOp9
 70
     1
102
RTVSPropertyOp10
 70
     1
102
RTVSPropertyOp11
 70
     1
102
RTVSPropertyOp12
 70
     1
102
RTVSPropertyOp13
 70
     1
102
RTVSPropertyOp14
 70
     1
102
RTVSPropertyOp15
 70
     1
102
RTVSPropertyOp16
 70
     1
102
RTVSPropertyOp17
 70
     1
102
RTVSPropertyOp18
 70
     1
102
RTVSPropertyOp19
 70
     1
102
RTVSPropertyOp20
 70
     1
102
RTVSPropertyOp21
 70
     1
102
RTVSPropertyOp22
 70
     1
102
RTVSPropertyOp23
 70
     1
102
RTVSPropertyOp24
 70
     1
102
RTVSPropertyOp25
 70
     1
102
RTVSPropertyOp26
 70
     1
102
RTVSPropertyOp27
 70
     1
102
RTVSPropertyOp28
 70
     1
102
RTVSPropertyOp29
 70
     1
102
RTVSPropertyOp30
 70
     1
102
RTVSPropertyOp31
 70
     1
102
RTVSPropertyOp32
 70
     1
102
RTVSPropertyOp33
 70
     1
102
RTVSPropertyOp34
 70
     1
102
RTVSPropertyOp35
 70
     1
102
RTVSPropertyOp36
 70
     1
102
RTVSPropertyOp37
 70
     1
102
RTVSPropertyOp38
 70
     1
102
RTVSPropertyOp39
 70
     1
102
RTVSPropertyOp40
 70
     1
102
RTVSPropertyOp41
 70
     1
102
RTVSPropertyOp42
 70
     1
102
RTVSPropertyOp43
 70
     1
102
RTVSPropertyOp44
 70
     1
102
RTVSPropertyOp45
 70
     1
102
RTVSPropertyOp46
 70
     1
102
RTVSPropertyOp47
 70
     1
102
RTVSPropertyOp48
 70
     1
102
RTVSPropertyOp49
 70
     1
102
RTVSPropertyOp50
 70
     1
102
RTVSPropertyOp51
 70
     0
102
RTVSPropertyOp52
 70
     0
102
RTVSPropertyOp53
 70
     1
102
RTVSPropertyOp54
 70
     1
102
RTVSPropertyOp55
 70
     1
102
RTVSPropertyOp56
 70
     1
102
RTVSPropertyOp57
 70
     1
102
RTVSPropertyOp58
 70
     1
102
RTVSPropertyOp59
 70
     1
102
RTVSPropertyOp60
 70
     1
102
RTVSPropertyOp61
 70
     1
102
RTVSPropertyOp62
 70
     1
  0
XRECORD
  5
7B60
102
{ACAD_REACTORS
330
7B5F
102
}
330
7B5F
100
AcDbXrecord
280
     1
102
RTVSPost2010Prop28
280
     0
102
RTVSPost2010PropOp28
 70
     1
102
RTVSPost2010Prop29
280
     1
102
RTVSPost2010PropOp29
 70
     1
102
RTVSPost2010Prop30
280
     1
102
RTVSPost2010PropOp30
 70
     1
102
RTVSPost2010Prop31
280
     0
102
RTVSPost2010PropOp31
 70
     1
102
RTVSPost2010Prop32
280
     0
102
RTVSPost2010PropOp32
 70
     1
102
RTVSPost2010Prop33
280
     0
102
RTVSPost2010PropOp33
 70
     1
102
RTVSPost2010Prop34
280
     0
102
RTVSPost2010PropOp34
 70
     1
102
RTVSPost2010Prop35
280
     0
102
RTVSPost2010PropOp35
 70
     1
102
RTVSPost2010Prop36
280
     0
102
RTVSPost2010PropOp36
 70
     1
102
RTVSPost2010Prop37
 90
       50
102
RTVSPost2010PropOp37
 70
     1
102
RTVSPost2010Prop38
140
0.0
102
RTVSPost2010PropOp38
 70
     1
102
RTVSPost2010Prop39
140
1.0
102
RTVSPost2010PropOp39
 70
     1
102
RTVSPost2010Prop40
 90
        0
102
RTVSPost2010PropOp40
 70
     1
102
RTVSPost2010Prop41ColorIndex
 90
       18
102
RTVSPost2010Prop41ColorRGB
 90
        0
102
RTVSPost2010PropOp41
 70
     1
102
RTVSPost2010Prop42
 90
       50
102
RTVSPost2010PropOp42
 70
     1
102
RTVSPost2010Prop43
 90
        3
102
RTVSPost2010PropOp43
 70
     1
102
RTVSPost2010Prop44ColorIndex
 90
        5
102
RTVSPost2010Prop44ColorRGB
 90
      255
102
RTVSPost2010PropOp44
 70
     1
102
RTVSPost2010Prop45
280
     0
102
RTVSPost2010PropOp45
 70
     1
102
RTVSPost2010Prop46
 90
       50
102
RTVSPost2010PropOp46
 70
     1
102
RTVSPost2010Prop47
 90
       50
102
RTVSPost2010PropOp47
 70
     1
102
RTVSPost2010Prop48
 90
       50
102
RTVSPost2010PropOp48
 70
     1
102
RTVSPost2010Prop49
280
     0
102
RTVSPost2010PropOp49
 70
     1
102
RTVSPost2010Prop50
 90
       50
102
RTVSPost2010PropOp50
 70
     1
102
RTVSPost2010Prop51ColorIndex
 90
      256
102
RTVSPost2010Prop51ColorRGB
 90
-16777216
102
RTVSPost2010PropOp51
 70
     0
102
RTVSPost2010Prop52
140
1.0
102
RTVSPost2010PropOp52
 70
     0
102
RTVSPost2010Prop53
 90
        2
102
RTVSPost2010PropOp53
 70
     1
102
RTVSPost2010Prop54
  1
strokes_ogs.tif
102
RTVSPost2010PropOp54
 70
     1
102
RTVSPost2010Prop55
280
     0
102
RTVSPost2010PropOp55
 70
     1
102
RTVSPost2010Prop56
140
1.0
102
RTVSPost2010PropOp56
 70
     1
102
RTVSPost2010Prop57
140
1.0
102
RTVSPost2010PropOp57
 70
     1
102
RTVSPropertyOp0
 70
     1
102
RTVSPropertyOp1
 70
     1
102
RTVSPropertyOp2
 70
     1
102
RTVSPropertyOp3
 70
     1
102
RTVSPropertyOp4
 70
     1
102
RTVSPropertyOp5
 70
     1
102
RTVSPropertyOp6
 70
     1
102
RTVSPropertyOp7
 70
     1
102
RTVSPropertyOp8
 70
     1
102
RTVSPropertyOp9
 70
     1
102
RTVSPropertyOp10
 70
     1
102
RTVSPropertyOp11
 70
     1
102
RTVSPropertyOp12
 70
     1
102
RTVSPropertyOp13
 70
     1
102
RTVSPropertyOp14
 70
     1
102
RTVSPropertyOp15
 70
     1
102
RTVSPropertyOp16
 70
     1
102
RTVSPropertyOp17
 70
     1
102
RTVSPropertyOp18
 70
     1
102
RTVSPropertyOp19
 70
     1
102
RTVSPropertyOp20
 70
     1
102
RTVSPropertyOp21
 70
     1
102
RTVSPropertyOp22
 70
     1
102
RTVSPropertyOp23
 70
     1
102
RTVSPropertyOp24
 70
     1
102
RTVSPropertyOp25
 70
     1
102
RTVSPropertyOp26
 70
     1
102
RTVSPropertyOp27
 70
     1
102
RTVSPropertyOp28
 70
     1
102
RTVSPropertyOp29
 70
     1
102
RTVSPropertyOp30
 70
     1
102
RTVSPropertyOp31
 70
     1
102
RTVSPropertyOp32
 70
     1
102
RTVSPropertyOp33
 70
     1
102
RTVSPropertyOp34
 70
     1
102
RTVSPropertyOp35
 70
     1
102
RTVSPropertyOp36
 70
     1
102
RTVSPropertyOp37
 70
     1
102
RTVSPropertyOp38
 70
     1
102
RTVSPropertyOp39
 70
     1
102
RTVSPropertyOp40
 70
     1
102
RTVSPropertyOp41
 70
     1
102
RTVSPropertyOp42
 70
     1
102
RTVSPropertyOp43
 70
     1
102
RTVSPropertyOp44
 70
     1
102
RTVSPropertyOp45
 70
     1
102
RTVSPropertyOp46
 70
     1
102
RTVSPropertyOp47
 70
     1
102
RTVSPropertyOp48
 70
     1
102
RTVSPropertyOp49
 70
     1
102
RTVSPropertyOp50
 70
     1
102
RTVSPropertyOp51
 70
     0
102
RTVSPropertyOp52
 70
     0
102
RTVSPropertyOp53
 70
     1
102
RTVSPropertyOp54
 70
     1
102
RTVSPropertyOp55
 70
     1
102
RTVSPropertyOp56
 70
     1
102
RTVSPropertyOp57
 70
     1
102
RTVSPropertyOp58
 70
     1
102
RTVSPropertyOp59
 70
     1
102
RTVSPropertyOp60
 70
     1
102
RTVSPropertyOp61
 70
     1
102
RTVSPropertyOp62
 70
     1
  0
XRECORD
  5
7B4E
102
{ACAD_REACTORS
330
7B4D
102
}
330
7B4D
100
AcDbXrecord
280
     1
102
RTVSPost2010Prop28
280
     0
102
RTVSPost2010PropOp28
 70
     1
102
RTVSPost2010Prop29
280
     1
102
RTVSPost2010PropOp29
 70
     1
102
RTVSPost2010Prop30
280
     1
102
RTVSPost2010PropOp30
 70
     1
102
RTVSPost2010Prop31
280
     0
102
RTVSPost2010PropOp31
 70
     1
102
RTVSPost2010Prop32
280
     0
102
RTVSPost2010PropOp32
 70
     1
102
RTVSPost2010Prop33
280
     0
102
RTVSPost2010PropOp33
 70
     1
102
RTVSPost2010Prop34
280
     0
102
RTVSPost2010PropOp34
 70
     1
102
RTVSPost2010Prop35
280
     0
102
RTVSPost2010PropOp35
 70
     1
102
RTVSPost2010Prop36
280
     0
102
RTVSPost2010PropOp36
 70
     1
102
RTVSPost2010Prop37
 90
       50
102
RTVSPost2010PropOp37
 70
     1
102
RTVSPost2010Prop38
140
0.0
102
RTVSPost2010PropOp38
 70
     1
102
RTVSPost2010Prop39
140
1.0
102
RTVSPost2010PropOp39
 70
     1
102
RTVSPost2010Prop40
 90
        0
102
RTVSPost2010PropOp40
 70
     1
102
RTVSPost2010Prop41ColorIndex
 90
       18
102
RTVSPost2010Prop41ColorRGB
 90
        0
102
RTVSPost2010PropOp41
 70
     1
102
RTVSPost2010Prop42
 90
       50
102
RTVSPost2010PropOp42
 70
     1
102
RTVSPost2010Prop43
 90
        3
102
RTVSPost2010PropOp43
 70
     1
102
RTVSPost2010Prop44ColorIndex
 90
        5
102
RTVSPost2010Prop44ColorRGB
 90
      255
102
RTVSPost2010PropOp44
 70
     1
102
RTVSPost2010Prop45
280
     0
102
RTVSPost2010PropOp45
 70
     1
102
RTVSPost2010Prop46
 90
       50
102
RTVSPost2010PropOp46
 70
     1
102
RTVSPost2010Prop47
 90
       50
102
RTVSPost2010PropOp47
 70
     1
102
RTVSPost2010Prop48
 90
       50
102
RTVSPost2010PropOp48
 70
     1
102
RTVSPost2010Prop49
280
     0
102
RTVSPost2010PropOp49
 70
     1
102
RTVSPost2010Prop50
 90
       50
102
RTVSPost2010PropOp50
 70
     1
102
RTVSPost2010Prop51ColorIndex
 90
      256
102
RTVSPost2010Prop51ColorRGB
 90
-16777216
102
RTVSPost2010PropOp51
 70
     0
102
RTVSPost2010Prop52
140
1.0
102
RTVSPost2010PropOp52
 70
     0
102
RTVSPost2010Prop53
 90
        2
102
RTVSPost2010PropOp53
 70
     1
102
RTVSPost2010Prop54
  1
strokes_ogs.tif
102
RTVSPost2010PropOp54
 70
     1
102
RTVSPost2010Prop55
280
     0
102
RTVSPost2010PropOp55
 70
     1
102
RTVSPost2010Prop56
140
1.0
102
RTVSPost2010PropOp56
 70
     1
102
RTVSPost2010Prop57
140
1.0
102
RTVSPost2010PropOp57
 70
     1
102
RTVSPropertyOp0
 70
     1
102
RTVSPropertyOp1
 70
     1
102
RTVSPropertyOp2
 70
     1
102
RTVSPropertyOp3
 70
     1
102
RTVSPropertyOp4
 70
     1
102
RTVSPropertyOp5
 70
     1
102
RTVSPropertyOp6
 70
     1
102
RTVSPropertyOp7
 70
     1
102
RTVSPropertyOp8
 70
     1
102
RTVSPropertyOp9
 70
     1
102
RTVSPropertyOp10
 70
     1
102
RTVSPropertyOp11
 70
     1
102
RTVSPropertyOp12
 70
     1
102
RTVSPropertyOp13
 70
     1
102
RTVSPropertyOp14
 70
     1
102
RTVSPropertyOp15
 70
     1
102
RTVSPropertyOp16
 70
     1
102
RTVSPropertyOp17
 70
     1
102
RTVSPropertyOp18
 70
     1
102
RTVSPropertyOp19
 70
     1
102
RTVSPropertyOp20
 70
     1
102
RTVSPropertyOp21
 70
     1
102
RTVSPropertyOp22
 70
     1
102
RTVSPropertyOp23
 70
     1
102
RTVSPropertyOp24
 70
     1
102
RTVSPropertyOp25
 70
     1
102
RTVSPropertyOp26
 70
     1
102
RTVSPropertyOp27
 70
     1
102
RTVSPropertyOp28
 70
     1
102
RTVSPropertyOp29
 70
     1
102
RTVSPropertyOp30
 70
     1
102
RTVSPropertyOp31
 70
     1
102
RTVSPropertyOp32
 70
     1
102
RTVSPropertyOp33
 70
     1
102
RTVSPropertyOp34
 70
     1
102
RTVSPropertyOp35
 70
     1
102
RTVSPropertyOp36
 70
     1
102
RTVSPropertyOp37
 70
     1
102
RTVSPropertyOp38
 70
     1
102
RTVSPropertyOp39
 70
     1
102
RTVSPropertyOp40
 70
     1
102
RTVSPropertyOp41
 70
     1
102
RTVSPropertyOp42
 70
     1
102
RTVSPropertyOp43
 70
     1
102
RTVSPropertyOp44
 70
     1
102
RTVSPropertyOp45
 70
     1
102
RTVSPropertyOp46
 70
     1
102
RTVSPropertyOp47
 70
     1
102
RTVSPropertyOp48
 70
     1
102
RTVSPropertyOp49
 70
     1
102
RTVSPropertyOp50
 70
     1
102
RTVSPropertyOp51
 70
     0
102
RTVSPropertyOp52
 70
     0
102
RTVSPropertyOp53
 70
     1
102
RTVSPropertyOp54
 70
     1
102
RTVSPropertyOp55
 70
     1
102
RTVSPropertyOp56
 70
     1
102
RTVSPropertyOp57
 70
     1
102
RTVSPropertyOp58
 70
     1
102
RTVSPropertyOp59
 70
     1
102
RTVSPropertyOp60
 70
     1
102
RTVSPropertyOp61
 70
     1
102
RTVSPropertyOp62
 70
     1
  0
XRECORD
  5
7B42
102
{ACAD_REACTORS
330
7B41
102
}
330
7B41
100
AcDbXrecord
280
     1
102
RTVSPost2010Prop28
280
     0
102
RTVSPost2010PropOp28
 70
     1
102
RTVSPost2010Prop29
280
     1
102
RTVSPost2010PropOp29
 70
     1
102
RTVSPost2010Prop30
280
     1
102
RTVSPost2010PropOp30
 70
     1
102
RTVSPost2010Prop31
280
     0
102
RTVSPost2010PropOp31
 70
     1
102
RTVSPost2010Prop32
280
     0
102
RTVSPost2010PropOp32
 70
     1
102
RTVSPost2010Prop33
280
     0
102
RTVSPost2010PropOp33
 70
     1
102
RTVSPost2010Prop34
280
     0
102
RTVSPost2010PropOp34
 70
     1
102
RTVSPost2010Prop35
280
     0
102
RTVSPost2010PropOp35
 70
     1
102
RTVSPost2010Prop36
280
     0
102
RTVSPost2010PropOp36
 70
     1
102
RTVSPost2010Prop37
 90
       50
102
RTVSPost2010PropOp37
 70
     1
102
RTVSPost2010Prop38
140
0.0
102
RTVSPost2010PropOp38
 70
     1
102
RTVSPost2010Prop39
140
1.0
102
RTVSPost2010PropOp39
 70
     1
102
RTVSPost2010Prop40
 90
        0
102
RTVSPost2010PropOp40
 70
     1
102
RTVSPost2010Prop41ColorIndex
 90
       18
102
RTVSPost2010Prop41ColorRGB
 90
        0
102
RTVSPost2010PropOp41
 70
     1
102
RTVSPost2010Prop42
 90
       50
102
RTVSPost2010PropOp42
 70
     1
102
RTVSPost2010Prop43
 90
        3
102
RTVSPost2010PropOp43
 70
     1
102
RTVSPost2010Prop44ColorIndex
 90
        5
102
RTVSPost2010Prop44ColorRGB
 90
      255
102
RTVSPost2010PropOp44
 70
     1
102
RTVSPost2010Prop45
280
     0
102
RTVSPost2010PropOp45
 70
     1
102
RTVSPost2010Prop46
 90
       50
102
RTVSPost2010PropOp46
 70
     1
102
RTVSPost2010Prop47
 90
       50
102
RTVSPost2010PropOp47
 70
     1
102
RTVSPost2010Prop48
 90
       50
102
RTVSPost2010PropOp48
 70
     1
102
RTVSPost2010Prop49
280
     0
102
RTVSPost2010PropOp49
 70
     1
102
RTVSPost2010Prop50
 90
       50
102
RTVSPost2010PropOp50
 70
     1
102
RTVSPost2010Prop51ColorIndex
 90
      256
102
RTVSPost2010Prop51ColorRGB
 90
-16777216
102
RTVSPost2010PropOp51
 70
     0
102
RTVSPost2010Prop52
140
1.0
102
RTVSPost2010PropOp52
 70
     0
102
RTVSPost2010Prop53
 90
        2
102
RTVSPost2010PropOp53
 70
     1
102
RTVSPost2010Prop54
  1
strokes_ogs.tif
102
RTVSPost2010PropOp54
 70
     1
102
RTVSPost2010Prop55
280
     0
102
RTVSPost2010PropOp55
 70
     1
102
RTVSPost2010Prop56
140
1.0
102
RTVSPost2010PropOp56
 70
     1
102
RTVSPost2010Prop57
140
1.0
102
RTVSPost2010PropOp57
 70
     1
102
RTVSPropertyOp0
 70
     1
102
RTVSPropertyOp1
 70
     1
102
RTVSPropertyOp2
 70
     1
102
RTVSPropertyOp3
 70
     1
102
RTVSPropertyOp4
 70
     1
102
RTVSPropertyOp5
 70
     1
102
RTVSPropertyOp6
 70
     1
102
RTVSPropertyOp7
 70
     1
102
RTVSPropertyOp8
 70
     1
102
RTVSPropertyOp9
 70
     1
102
RTVSPropertyOp10
 70
     1
102
RTVSPropertyOp11
 70
     1
102
RTVSPropertyOp12
 70
     1
102
RTVSPropertyOp13
 70
     1
102
RTVSPropertyOp14
 70
     1
102
RTVSPropertyOp15
 70
     1
102
RTVSPropertyOp16
 70
     1
102
RTVSPropertyOp17
 70
     1
102
RTVSPropertyOp18
 70
     1
102
RTVSPropertyOp19
 70
     1
102
RTVSPropertyOp20
 70
     1
102
RTVSPropertyOp21
 70
     1
102
RTVSPropertyOp22
 70
     1
102
RTVSPropertyOp23
 70
     1
102
RTVSPropertyOp24
 70
     1
102
RTVSPropertyOp25
 70
     1
102
RTVSPropertyOp26
 70
     1
102
RTVSPropertyOp27
 70
     1
102
RTVSPropertyOp28
 70
     1
102
RTVSPropertyOp29
 70
     1
102
RTVSPropertyOp30
 70
     1
102
RTVSPropertyOp31
 70
     1
102
RTVSPropertyOp32
 70
     1
102
RTVSPropertyOp33
 70
     1
102
RTVSPropertyOp34
 70
     1
102
RTVSPropertyOp35
 70
     1
102
RTVSPropertyOp36
 70
     1
102
RTVSPropertyOp37
 70
     1
102
RTVSPropertyOp38
 70
     1
102
RTVSPropertyOp39
 70
     1
102
RTVSPropertyOp40
 70
     1
102
RTVSPropertyOp41
 70
     1
102
RTVSPropertyOp42
 70
     1
102
RTVSPropertyOp43
 70
     1
102
RTVSPropertyOp44
 70
     1
102
RTVSPropertyOp45
 70
     1
102
RTVSPropertyOp46
 70
     1
102
RTVSPropertyOp47
 70
     1
102
RTVSPropertyOp48
 70
     1
102
RTVSPropertyOp49
 70
     1
102
RTVSPropertyOp50
 70
     1
102
RTVSPropertyOp51
 70
     0
102
RTVSPropertyOp52
 70
     0
102
RTVSPropertyOp53
 70
     1
102
RTVSPropertyOp54
 70
     1
102
RTVSPropertyOp55
 70
     1
102
RTVSPropertyOp56
 70
     1
102
RTVSPropertyOp57
 70
     1
102
RTVSPropertyOp58
 70
     1
102
RTVSPropertyOp59
 70
     1
102
RTVSPropertyOp60
 70
     1
102
RTVSPropertyOp61
 70
     1
102
RTVSPropertyOp62
 70
     1
  0
XRECORD
  5
7B62
102
{ACAD_REACTORS
330
7B61
102
}
330
7B61
100
AcDbXrecord
280
     1
102
RTVSPost2010Prop28
280
     0
102
RTVSPost2010PropOp28
 70
     1
102
RTVSPost2010Prop29
280
     1
102
RTVSPost2010PropOp29
 70
     1
102
RTVSPost2010Prop30
280
     1
102
RTVSPost2010PropOp30
 70
     1
102
RTVSPost2010Prop31
280
     0
102
RTVSPost2010PropOp31
 70
     1
102
RTVSPost2010Prop32
280
     0
102
RTVSPost2010PropOp32
 70
     1
102
RTVSPost2010Prop33
280
     0
102
RTVSPost2010PropOp33
 70
     1
102
RTVSPost2010Prop34
280
     0
102
RTVSPost2010PropOp34
 70
     1
102
RTVSPost2010Prop35
280
     0
102
RTVSPost2010PropOp35
 70
     1
102
RTVSPost2010Prop36
280
     0
102
RTVSPost2010PropOp36
 70
     1
102
RTVSPost2010Prop37
 90
       50
102
RTVSPost2010PropOp37
 70
     1
102
RTVSPost2010Prop38
140
0.0
102
RTVSPost2010PropOp38
 70
     1
102
RTVSPost2010Prop39
140
1.0
102
RTVSPost2010PropOp39
 70
     1
102
RTVSPost2010Prop40
 90
        0
102
RTVSPost2010PropOp40
 70
     1
102
RTVSPost2010Prop41ColorIndex
 90
       18
102
RTVSPost2010Prop41ColorRGB
 90
        0
102
RTVSPost2010PropOp41
 70
     1
102
RTVSPost2010Prop42
 90
       50
102
RTVSPost2010PropOp42
 70
     1
102
RTVSPost2010Prop43
 90
        3
102
RTVSPost2010PropOp43
 70
     1
102
RTVSPost2010Prop44ColorIndex
 90
        5
102
RTVSPost2010Prop44ColorRGB
 90
      255
102
RTVSPost2010PropOp44
 70
     1
102
RTVSPost2010Prop45
280
     0
102
RTVSPost2010PropOp45
 70
     1
102
RTVSPost2010Prop46
 90
       50
102
RTVSPost2010PropOp46
 70
     1
102
RTVSPost2010Prop47
 90
       50
102
RTVSPost2010PropOp47
 70
     1
102
RTVSPost2010Prop48
 90
       50
102
RTVSPost2010PropOp48
 70
     1
102
RTVSPost2010Prop49
280
     0
102
RTVSPost2010PropOp49
 70
     1
102
RTVSPost2010Prop50
 90
       50
102
RTVSPost2010PropOp50
 70
     1
102
RTVSPost2010Prop51ColorIndex
 90
      256
102
RTVSPost2010Prop51ColorRGB
 90
-16777216
102
RTVSPost2010PropOp51
 70
     0
102
RTVSPost2010Prop52
140
1.0
102
RTVSPost2010PropOp52
 70
     0
102
RTVSPost2010Prop53
 90
        2
102
RTVSPost2010PropOp53
 70
     1
102
RTVSPost2010Prop54
  1
strokes_ogs.tif
102
RTVSPost2010PropOp54
 70
     1
102
RTVSPost2010Prop55
280
     0
102
RTVSPost2010PropOp55
 70
     1
102
RTVSPost2010Prop56
140
1.0
102
RTVSPost2010PropOp56
 70
     1
102
RTVSPost2010Prop57
140
1.0
102
RTVSPost2010PropOp57
 70
     1
102
RTVSPropertyOp0
 70
     1
102
RTVSPropertyOp1
 70
     1
102
RTVSPropertyOp2
 70
     1
102
RTVSPropertyOp3
 70
     1
102
RTVSPropertyOp4
 70
     1
102
RTVSPropertyOp5
 70
     1
102
RTVSPropertyOp6
 70
     1
102
RTVSPropertyOp7
 70
     1
102
RTVSPropertyOp8
 70
     1
102
RTVSPropertyOp9
 70
     1
102
RTVSPropertyOp10
 70
     1
102
RTVSPropertyOp11
 70
     1
102
RTVSPropertyOp12
 70
     1
102
RTVSPropertyOp13
 70
     1
102
RTVSPropertyOp14
 70
     1
102
RTVSPropertyOp15
 70
     1
102
RTVSPropertyOp16
 70
     1
102
RTVSPropertyOp17
 70
     1
102
RTVSPropertyOp18
 70
     1
102
RTVSPropertyOp19
 70
     1
102
RTVSPropertyOp20
 70
     1
102
RTVSPropertyOp21
 70
     1
102
RTVSPropertyOp22
 70
     1
102
RTVSPropertyOp23
 70
     1
102
RTVSPropertyOp24
 70
     1
102
RTVSPropertyOp25
 70
     1
102
RTVSPropertyOp26
 70
     1
102
RTVSPropertyOp27
 70
     1
102
RTVSPropertyOp28
 70
     1
102
RTVSPropertyOp29
 70
     1
102
RTVSPropertyOp30
 70
     1
102
RTVSPropertyOp31
 70
     1
102
RTVSPropertyOp32
 70
     1
102
RTVSPropertyOp33
 70
     1
102
RTVSPropertyOp34
 70
     1
102
RTVSPropertyOp35
 70
     1
102
RTVSPropertyOp36
 70
     1
102
RTVSPropertyOp37
 70
     1
102
RTVSPropertyOp38
 70
     1
102
RTVSPropertyOp39
 70
     1
102
RTVSPropertyOp40
 70
     1
102
RTVSPropertyOp41
 70
     1
102
RTVSPropertyOp42
 70
     1
102
RTVSPropertyOp43
 70
     1
102
RTVSPropertyOp44
 70
     1
102
RTVSPropertyOp45
 70
     1
102
RTVSPropertyOp46
 70
     1
102
RTVSPropertyOp47
 70
     1
102
RTVSPropertyOp48
 70
     1
102
RTVSPropertyOp49
 70
     1
102
RTVSPropertyOp50
 70
     1
102
RTVSPropertyOp51
 70
     0
102
RTVSPropertyOp52
 70
     0
102
RTVSPropertyOp53
 70
     1
102
RTVSPropertyOp54
 70
     1
102
RTVSPropertyOp55
 70
     1
102
RTVSPropertyOp56
 70
     1
102
RTVSPropertyOp57
 70
     1
102
RTVSPropertyOp58
 70
     1
102
RTVSPropertyOp59
 70
     1
102
RTVSPropertyOp60
 70
     1
102
RTVSPropertyOp61
 70
     1
102
RTVSPropertyOp62
 70
     1
  0
ENDSEC
  0
EOF
