  0
SECTION
  2
HEADER
  9
$ACADVER
  1
AC1015
  9
$ACADMAINTVER
 70
    18
  9
$DWGCODEPAGE
  3
ANSI_1252
  9
$INSBASE
 10
0.0
 20
0.0
 30
0.0
  9
$EXTMIN
 10
-192.4017326445338
 20
-239.9710689237935
 30
-0.0015258207003583
  9
$EXTMAX
 10
224.8681648132254
 20
282.9149787024536
 30
0.0000000349246037
  9
$LIMMIN
 10
0.0
 20
0.0
  9
$LIMMAX
 10
420.0
 20
297.0
  9
$ORTHOMODE
 70
     0
  9
$REGENMODE
 70
     1
  9
$FILLMODE
 70
     1
  9
$QTEXTMODE
 70
     0
  9
$MIRRTEXT
 70
     0
  9
$LTSCALE
 40
1.0
  9
$ATTMODE
 70
     1
  9
$TEXTSIZE
 40
2.5
  9
$TRACEWID
 40
1.0
  9
$TEXTSTYLE
  7
Standard
  9
$CLAYER
  8
0
  9
$CELTYPE
  6
ByLayer
  9
$CECOLOR
 62
   256
  9
$CELTSCALE
 40
1.0
  9
$DISPSILH
 70
     0
  9
$DIMSCALE
 40
1.0
  9
$DIMASZ
 40
2.5
  9
$DIMEXO
 40
0.625
  9
$DIMDLI
 40
3.75
  9
$DIMRND
 40
0.0
  9
$DIMDLE
 40
0.0
  9
$DIMEXE
 40
1.25
  9
$DIMTP
 40
0.0
  9
$DIMTM
 40
0.0
  9
$DIMTXT
 40
2.5
  9
$DIMCEN
 40
2.5
  9
$DIMTSZ
 40
0.0
  9
$DIMTOL
 70
     0
  9
$DIMLIM
 70
     0
  9
$DIMTIH
 70
     0
  9
$DIMTOH
 70
     0
  9
$DIMSE1
 70
     0
  9
$DIMSE2
 70
     0
  9
$DIMTAD
 70
     1
  9
$DIMZIN
 70
     8
  9
$DIMBLK
  1

  9
$DIMASO
 70
     1
  9
$DIMSHO
 70
     1
  9
$DIMPOST
  1

  9
$DIMAPOST
  1

  9
$DIMALT
 70
     0
  9
$DIMALTD
 70
     3
  9
$DIMALTF
 40
0.03937007874016
  9
$DIMLFAC
 40
1.0
  9
$DIMTOFL
 70
     1
  9
$DIMTVP
 40
0.0
  9
$DIMTIX
 70
     0
  9
$DIMSOXD
 70
     0
  9
$DIMSAH
 70
     0
  9
$DIMBLK1
  1

  9
$DIMBLK2
  1

  9
$DIMSTYLE
  2
ISO-25
  9
$DIMCLRD
 70
     0
  9
$DIMCLRE
 70
     0
  9
$DIMCLRT
 70
     0
  9
$DIMTFAC
 40
1.0
  9
$DIMGAP
 40
0.625
  9
$DIMJUST
 70
     0
  9
$DIMSD1
 70
     0
  9
$DIMSD2
 70
     0
  9
$DIMTOLJ
 70
     0
  9
$DIMTZIN
 70
     8
  9
$DIMALTZ
 70
     0
  9
$DIMALTTZ
 70
     0
  9
$DIMUPT
 70
     0
  9
$DIMDEC
 70
     2
  9
$DIMTDEC
 70
     2
  9
$DIMALTU
 70
     2
  9
$DIMALTTD
 70
     3
  9
$DIMTXSTY
  7
Standard
  9
$DIMAUNIT
 70
     0
  9
$DIMADEC
 70
     0
  9
$DIMALTRND
 40
0.0
  9
$DIMAZIN
 70
     0
  9
$DIMDSEP
 70
    44
  9
$DIMATFIT
 70
     3
  9
$DIMFRAC
 70
     0
  9
$DIMLDRBLK
  1

  9
$DIMLUNIT
 70
     2
  9
$DIMLWD
 70
    -2
  9
$DIMLWE
 70
    -2
  9
$DIMTMOVE
 70
     0
  9
$LUNITS
 70
     2
  9
$LUPREC
 70
     4
  9
$SKETCHINC
 40
1.0
  9
$FILLETRAD
 40
0.0
  9
$AUNITS
 70
     0
  9
$AUPREC
 70
     0
  9
$MENU
  1
.
  9
$ELEVATION
 40
0.0
  9
$PELEVATION
 40
0.0
  9
$THICKNESS
 40
0.0
  9
$LIMCHECK
 70
     0
  9
$CHAMFERA
 40
0.0
  9
$CHAMFERB
 40
0.0
  9
$CHAMFERC
 40
0.0
  9
$CHAMFERD
 40
0.0
  9
$SKPOLY
 70
     0
  9
$TDCREATE
 40
2460398.356956019
  9
$TDUCREATE
 40
2460398.065289352
  9
$TDUPDATE
 40
2460398.374178240
  9
$TDUUPDATE
 40
2460398.082511574
  9
$TDINDWG
 40
0.0076851852
  9
$TDUSRTIMER
 40
0.0076851852
  9
$USRTIMER
 70
     1
  9
$ANGBASE
 50
0.0
  9
$ANGDIR
 70
     0
  9
$PDMODE
 70
     0
  9
$PDSIZE
 40
0.0
  9
$PLINEWID
 40
0.0
  9
$SPLFRAME
 70
     0
  9
$SPLINETYPE
 70
     6
  9
$SPLINESEGS
 70
     8
  9
$HANDSEED
  5
81E2
  9
$SURFTAB1
 70
     6
  9
$SURFTAB2
 70
     6
  9
$SURFTYPE
 70
     6
  9
$SURFU
 70
     6
  9
$SURFV
 70
     6
  9
$UCSBASE
  2

  9
$UCSNAME
  2

  9
$UCSORG
 10
0.0
 20
0.0
 30
0.0
  9
$UCSXDIR
 10
1.0
 20
0.0
 30
0.0
  9
$UCSYDIR
 10
0.0
 20
1.0
 30
0.0
  9
$UCSORTHOREF
  2

  9
$UCSORTHOVIEW
 70
     0
  9
$UCSORGTOP
 10
0.0
 20
0.0
 30
0.0
  9
$UCSORGBOTTOM
 10
0.0
 20
0.0
 30
0.0
  9
$UCSORGLEFT
 10
0.0
 20
0.0
 30
0.0
  9
$UCSORGRIGHT
 10
0.0
 20
0.0
 30
0.0
  9
$UCSORGFRONT
 10
0.0
 20
0.0
 30
0.0
  9
$UCSORGBACK
 10
0.0
 20
0.0
 30
0.0
  9
$PUCSBASE
  2

  9
$PUCSNAME
  2

  9
$PUCSORG
 10
0.0
 20
0.0
 30
0.0
  9
$PUCSXDIR
 10
1.0
 20
0.0
 30
0.0
  9
$PUCSYDIR
 10
0.0
 20
1.0
 30
0.0
  9
$PUCSORTHOREF
  2

  9
$PUCSORTHOVIEW
 70
     0
  9
$PUCSORGTOP
 10
0.0
 20
0.0
 30
0.0
  9
$PUCSORGBOTTOM
 10
0.0
 20
0.0
 30
0.0
  9
$PUCSORGLEFT
 10
0.0
 20
0.0
 30
0.0
  9
$PUCSORGRIGHT
 10
0.0
 20
0.0
 30
0.0
  9
$PUCSORGFRONT
 10
0.0
 20
0.0
 30
0.0
  9
$PUCSORGBACK
 10
0.0
 20
0.0
 30
0.0
  9
$USERI1
 70
     0
  9
$USERI2
 70
     0
  9
$USERI3
 70
     0
  9
$USERI4
 70
     0
  9
$USERI5
 70
     0
  9
$USERR1
 40
0.0
  9
$USERR2
 40
0.0
  9
$USERR3
 40
0.0
  9
$USERR4
 40
0.0
  9
$USERR5
 40
0.0
  9
$WORLDVIEW
 70
     1
  9
$SHADEDGE
 70
     3
  9
$SHADEDIF
 70
    70
  9
$TILEMODE
 70
     1
  9
$MAXACTVP
 70
    48
  9
$PINSBASE
 10
0.0
 20
0.0
 30
0.0
  9
$PLIMCHECK
 70
     0
  9
$PEXTMIN
 10
0.0
 20
0.0
 30
0.0
  9
$PEXTMAX
 10
0.0
 20
0.0
 30
0.0
  9
$PLIMMIN
 10
0.0
 20
0.0
  9
$PLIMMAX
 10
12.0
 20
9.0
  9
$UNITMODE
 70
     0
  9
$VISRETAIN
 70
     1
  9
$PLINEGEN
 70
     0
  9
$PSLTSCALE
 70
     1
  9
$TREEDEPTH
 70
  3020
  9
$CMLSTYLE
  2
Standard
  9
$CMLJUST
 70
     0
  9
$CMLSCALE
 40
20.0
  9
$PROXYGRAPHICS
 70
     1
  9
$MEASUREMENT
 70
     1
  9
$CELWEIGHT
370
    -1
  9
$ENDCAPS
280
     0
  9
$JOINSTYLE
280
     0
  9
$LWDISPLAY
290
     0
  9
$INSUNITS
 70
     4
  9
$HYPERLINKBASE
  1

  9
$STYLESHEET
  1

  9
$XEDIT
290
     1
  9
$CEPSNTYPE
380
     0
  9
$PSTYLEMODE
290
     1
  9
$FINGERPRINTGUID
  2
{6C1266EE-7BC1-BF4A-B059-A6E7702B10CE}
  9
$VERSIONGUID
  2
{47CBDF7D-FCE5-744D-9110-AF2BFBB7813D}
  9
$EXTNAMES
290
     1
  9
$PSVPSCALE
 40
0.0
  9
$OLESTARTUP
290
     0
  0
ENDSEC
  0
SECTION
  2
CLASSES
  0
CLASS
  1
ACDBDICTIONARYWDFLT
  2
AcDbDictionaryWithDefault
  3
ObjectDBX Classes
 90
        0
280
     0
281
     0
  0
CLASS
  1
ACDBPLACEHOLDER
  2
AcDbPlaceHolder
  3
ObjectDBX Classes
 90
        0
280
     0
281
     0
  0
CLASS
  1
LAYOUT
  2
AcDbLayout
  3
ObjectDBX Classes
 90
        0
280
     0
281
     0
  0
CLASS
  1
DICTIONARYVAR
  2
AcDbDictionaryVar
  3
ObjectDBX Classes
 90
        0
280
     0
281
     0
  0
CLASS
  1
TABLESTYLE
  2
AcDbTableStyle
  3
ObjectDBX Classes
 90
     4095
280
     0
281
     0
  0
CLASS
  1
MATERIAL
  2
AcDbMaterial
  3
ObjectDBX Classes
 90
     1153
280
     0
281
     0
  0
CLASS
  1
VISUALSTYLE
  2
AcDbVisualStyle
  3
ObjectDBX Classes
 90
     4095
280
     0
281
     0
  0
CLASS
  1
SCALE
  2
AcDbScale
  3
ObjectDBX Classes
 90
     1153
280
     0
281
     0
  0
CLASS
  1
MLEADERSTYLE
  2
AcDbMLeaderStyle
  3
ACDB_MLEADERSTYLE_CLASS
 90
     4095
280
     0
281
     0
  0
CLASS
  1
CELLSTYLEMAP
  2
AcDbCellStyleMap
  3
ObjectDBX Classes
 90
     1152
280
     0
281
     0
  0
CLASS
  1
EXACXREFPANELOBJECT
  2
ExAcXREFPanelObject
  3
EXAC_ESW
 90
    33793
280
     0
281
     0
  0
CLASS
  1
NPOCOLLECTION
  2
AcDbImpNonPersistentObjectsCollection
  3
ObjectDBX Classes
 90
    33921
280
     0
281
     0
  0
CLASS
  1
LAYER_INDEX
  2
AcDbLayerIndex
  3
ObjectDBX Classes
 90
    32768
280
     0
281
     0
  0
CLASS
  1
SPATIAL_INDEX
  2
AcDbSpatialIndex
  3
ObjectDBX Classes
 90
    32768
280
     0
281
     0
  0
CLASS
  1
IDBUFFER
  2
AcDbIdBuffer
  3
ObjectDBX Classes
 90
    32768
280
     0
281
     0
  0
CLASS
  1
ACDBSECTIONVIEWSTYLE
  2
AcDbSectionViewStyle
  3
ObjectDBX Classes
 90
     1025
280
     0
281
     0
  0
CLASS
  1
ACDBDETAILVIEWSTYLE
  2
AcDbDetailViewStyle
  3
ObjectDBX Classes
 90
     1025
280
     0
281
     0
  0
CLASS
  1
XRECORD
  2
AcDbXrecord
  3
ObjectDBX Classes
 90
        0
280
     0
281
     0
  0
ENDSEC
  0
SECTION
  2
TABLES
  0
TABLE
  2
VPORT
  5
8
102
{ACAD_XDICTIONARY
360
80F0
102
}
330
0
100
AcDbSymbolTable
 70
     1
  0
VPORT
  5
EA
330
8
100
AcDbSymbolTableRecord
100
AcDbViewportTableRecord
  2
*Active
 70
     0
 10
0.0
 20
0.0
 11
1.0
 21
1.0
 12
16.23321608434576
 22
21.47195488932999
 13
0.0
 23
0.0
 14
10.0
 24
10.0
 15
10.0
 25
10.0
 16
0.0
 26
0.0
 36
1.0
 17
0.0
 27
0.0
 37
0.0
 40
556.0419259830039
 41
0.9846153846153848
 42
50.0
 43
0.0
 44
0.0
 50
0.0
 51
0.0
 71
     0
 72
  1000
 73
     1
 74
     3
 75
     0
 76
     1
 77
     0
 78
     0
281
     0
 65
     1
110
0.0
120
0.0
130
0.0
111
1.0
121
0.0
131
0.0
112
0.0
122
1.0
132
0.0
 79
     0
146
0.0
1001
ACAD_NAV_VCDISPLAY
1070
     3
  0
ENDTAB
  0
TABLE
  2
LTYPE
  5
5
330
0
100
AcDbSymbolTable
 70
     1
  0
LTYPE
  5
14
330
5
100
AcDbSymbolTableRecord
100
AcDbLinetypeTableRecord
  2
ByBlock
 70
     0
  3

 72
    65
 73
     0
 40
0.0
  0
LTYPE
  5
15
330
5
100
AcDbSymbolTableRecord
100
AcDbLinetypeTableRecord
  2
ByLayer
 70
     0
  3

 72
    65
 73
     0
 40
0.0
  0
LTYPE
  5
16
330
5
100
AcDbSymbolTableRecord
100
AcDbLinetypeTableRecord
  2
Continuous
 70
     0
  3
Solid line
 72
    65
 73
     0
 40
0.0
  0
ENDTAB
  0
TABLE
  2
LAYER
  5
2
102
{ACAD_XDICTIONARY
360
1FF
102
}
330
0
100
AcDbSymbolTable
 70
     1
  0
LAYER
  5
10
102
{ACAD_XDICTIONARY
360
13C
102
}
330
2
100
AcDbSymbolTableRecord
100
AcDbLayerTableRecord
  2
0
 70
     0
 62
     7
  6
Continuous
370
    -3
390
F
  0
ENDTAB
  0
TABLE
  2
STYLE
  5
3
330
0
100
AcDbSymbolTable
 70
     1
  0
STYLE
  5
11
330
3
100
AcDbSymbolTableRecord
100
AcDbTextStyleTableRecord
  2
Standard
 70
     0
 40
0.0
 41
1.0
 50
0.0
 71
     0
 42
2.5
  3
arial.ttf
  4

1001
ACAD
1000
Arial
1071
       34
  0
ENDTAB
  0
TABLE
  2
VIEW
  5
6
330
0
100
AcDbSymbolTable
 70
     0
  0
ENDTAB
  0
TABLE
  2
UCS
  5
7
330
0
100
AcDbSymbolTable
 70
     0
  0
ENDTAB
  0
TABLE
  2
APPID
  5
9
330
0
100
AcDbSymbolTable
 70
     8
  0
APPID
  5
12
330
9
100
AcDbSymbolTableRecord
100
AcDbRegAppTableRecord
  2
ACAD
 70
     0
  0
APPID
  5
9E
330
9
100
AcDbSymbolTableRecord
100
AcDbRegAppTableRecord
  2
ACAD_PSEXT
 70
     0
  0
APPID
  5
133
330
9
100
AcDbSymbolTableRecord
100
AcDbRegAppTableRecord
  2
AcadAnnoPO
 70
     0
  0
APPID
  5
134
330
9
100
AcDbSymbolTableRecord
100
AcDbRegAppTableRecord
  2
AcadAnnotative
 70
     0
  0
APPID
  5
135
330
9
100
AcDbSymbolTableRecord
100
AcDbRegAppTableRecord
  2
ACAD_DSTYLE_DIMJAG
 70
     0
  0
APPID
  5
136
330
9
100
AcDbSymbolTableRecord
100
AcDbRegAppTableRecord
  2
ACAD_DSTYLE_DIMTALN
 70
     0
  0
APPID
  5
165
330
9
100
AcDbSymbolTableRecord
100
AcDbRegAppTableRecord
  2
ACAD_MLEADERVER
 70
     0
  0
APPID
  5
217
330
9
100
AcDbSymbolTableRecord
100
AcDbRegAppTableRecord
  2
ACAD_NAV_VCDISPLAY
 70
     0
  0
ENDTAB
  0
TABLE
  2
DIMSTYLE
  5
A
330
0
100
AcDbSymbolTable
 70
     1
100
AcDbDimStyleTable
 71
     0
  0
DIMSTYLE
105
27
330
A
100
AcDbSymbolTableRecord
100
AcDbDimStyleTableRecord
  2
ISO-25
 70
     0
 41
2.5
 42
0.625
 43
3.75
 44
1.25
 73
     0
 74
     0
 77
     1
 78
     8
140
2.5
141
2.5
143
0.03937007874016
147
0.625
171
     3
172
     1
271
     2
272
     2
274
     3
278
    44
283
     0
284
     8
340
11
  0
ENDTAB
  0
TABLE
  2
BLOCK_RECORD
  5
1
330
0
100
AcDbSymbolTable
 70
     7
  0
BLOCK_RECORD
  5
1F
102
{ACAD_XDICTIONARY
360
1CE
102
}
330
1
100
AcDbSymbolTableRecord
100
AcDbBlockTableRecord
  2
*Model_Space
340
22
  0
BLOCK_RECORD
  5
D2
102
{ACAD_XDICTIONARY
360
80A3
102
}
330
1
100
AcDbSymbolTableRecord
100
AcDbBlockTableRecord
  2
*Paper_Space
340
D3
  0
BLOCK_RECORD
  5
D6
102
{ACAD_XDICTIONARY
360
80A5
102
}
330
1
100
AcDbSymbolTableRecord
100
AcDbBlockTableRecord
  2
*Paper_Space0
340
D7
  0
BLOCK_RECORD
  5
7F27
330
1
100
AcDbSymbolTableRecord
100
AcDbBlockTableRecord
  2
SAE340_38_2-Front
340
0
102
{BLKREFS
331
8099
102
}
  0
BLOCK_RECORD
  5
7F79
330
1
100
AcDbSymbolTableRecord
100
AcDbBlockTableRecord
  2
SAE340_38_2-Left
340
0
102
{BLKREFS
331
809A
102
}
  0
BLOCK_RECORD
  5
7F98
330
1
100
AcDbSymbolTableRecord
100
AcDbBlockTableRecord
  2
SAE340_38_2-Right
340
0
102
{BLKREFS
331
809B
102
}
  0
BLOCK_RECORD
  5
7FB6
330
1
100
AcDbSymbolTableRecord
100
AcDbBlockTableRecord
  2
SAE340_38_2-Top
340
0
102
{BLKREFS
331
809C
102
}
  0
BLOCK_RECORD
  5
7FE8
330
1
100
AcDbSymbolTableRecord
100
AcDbBlockTableRecord
  2
SAE340_38_2-Bottom
340
0
102
{BLKREFS
331
809D
102
}
  0
BLOCK_RECORD
  5
8013
330
1
100
AcDbSymbolTableRecord
100
AcDbBlockTableRecord
  2
SAE340_38_2-ISO
340
0
102
{BLKREFS
331
809E
102
}
  0
ENDTAB
  0
ENDSEC
  0
SECTION
  2
BLOCKS
  0
BLOCK
  5
20
330
1F
100
AcDbEntity
  8
0
100
AcDbBlockBegin
  2
*Model_Space
 70
     0
 10
0.0
 20
0.0
 30
0.0
  3
*Model_Space
  1

  0
ENDBLK
  5
21
330
1F
100
AcDbEntity
  8
0
100
AcDbBlockEnd
  0
BLOCK
  5
D4
330
D2
100
AcDbEntity
 67
     1
  8
0
100
AcDbBlockBegin
  2
*Paper_Space
 70
     0
 10
0.0
 20
0.0
 30
0.0
  3
*Paper_Space
  1

  0
ENDBLK
  5
D5
330
D2
100
AcDbEntity
 67
     1
  8
0
100
AcDbBlockEnd
  0
BLOCK
  5
D8
330
D6
100
AcDbEntity
 67
     1
  8
0
100
AcDbBlockBegin
  2
*Paper_Space0
 70
     0
 10
0.0
 20
0.0
 30
0.0
  3
*Paper_Space0
  1

  0
ENDBLK
  5
D9
330
D6
100
AcDbEntity
 67
     1
  8
0
100
AcDbBlockEnd
  0
BLOCK
  5
7F28
330
7F27
100
AcDbEntity
  8
0
100
AcDbBlockBegin
  2
SAE340_38_2-Front
 70
     0
 10
0.0
 20
0.0
 30
0.0
  3
SAE340_38_2-Front
  1

  0
SPLINE
  5
7F2A
330
7F27
100
AcDbEntity
  8
0
100
AcDbSpline
210
0.0
220
0.0
230
1.0
 70
     8
 71
     3
 72
    14
 73
    10
 74
     0
 42
0.000000001
 43
0.0000000001
 40
0.0
 40
0.0
 40
0.0
 40
0.0
 40
0.3435149368843839
 40
0.3435149368843839
 40
0.3435149368843839
 40
0.7569946177101712
 40
0.7569946177101712
 40
0.7569946177101712
 40
0.9986524988863727
 40
0.9986524988863727
 40
0.9986524988863727
 40
0.9986524988863727
 10
23.60606060606065
 20
23.56249999999997
 30
0.0
 10
23.28490796720452
 20
23.30249636931212
 30
0.0
 10
22.87246555817525
 20
23.0752940212619
 30
0.0
 10
22.47647444984694
 20
22.84408179462264
 30
0.0
 10
21.99983061430814
 20
22.56577786251154
 30
0.0
 10
21.53729794759644
 20
22.27139780307911
 30
0.0
 10
21.26242807110221
 20
21.85792704000355
 30
0.0
 10
21.10178058337053
 20
21.61627437079961
 30
0.0
 10
21.00111652159953
 20
21.36107367674866
 30
0.0
 10
21.00000922922327
 20
21.00594992132077
 30
0.0
  0
LINE
  5
7F2B
330
7F27
100
AcDbEntity
  8
0
100
AcDbLine
 10
21.00000000000001
 20
23.56249999999995
 30
0.0
 11
23.0
 21
23.56249999999995
 31
0.0
  0
SPLINE
  5
7F2C
330
7F27
100
AcDbEntity
  8
0
100
AcDbSpline
210
0.0
220
0.0
230
1.0
 70
     8
 71
     3
 72
    20
 73
    16
 74
     0
 42
0.000000001
 43
0.0000000001
 40
0.0120727937217987
 40
0.0120727937217987
 40
0.0120727937217987
 40
0.0120727937217987
 40
0.0124288508751738
 40
0.0124288508751738
 40
0.0135302217254086
 40
0.0135302217254086
 40
0.0142261533850039
 40
0.0142261533850039
 40
0.0153094160333383
 40
0.0153094160333383
 40
0.0162525248818063
 40
0.0162525248818063
 40
0.0174015733493598
 40
0.0174015733493598
 40
0.0202445336701449
 40
0.0202445336701449
 40
0.0202445336701449
 40
0.0202445336701449
 10
21.00029164702528
 20
21.05864902333699
 30
0.0
 10
21.00029164702498
 20
21.05864902331147
 30
0.0
 10
21.00029123369319
 20
21.05861294220162
 30
0.0
 10
21.00028772502049
 20
21.05830125778862
 30
0.0
 10
21.00028065344619
 20
21.05767569685836
 30
0.0
 10
21.00026146072321
 20
21.05580875755216
 30
0.0
 10
21.00025209701929
 20
21.05487008330411
 30
0.0
 10
21.00022447041407
 20
21.05189819479439
 30
0.0
 10
21.00020362500274
 20
21.04947455980189
 30
0.0
 10
21.00016554779849
 20
21.04422649457271
 30
0.0
 10
21.00014800683276
 20
21.04146120927875
 30
0.0
 10
21.00011446921865
 20
21.0350937401249
 30
0.0
 10
21.00009956667932
 20
21.03145135009494
 30
0.0
 10
21.00006174351591
 20
21.01867994133579
 30
0.0
 10
21.00005914615842
 20
21.00931579016149
 30
0.0
 10
21.00007431501592
 20
21.00000007787119
 30
0.0
  0
SPLINE
  5
7F2D
330
7F27
100
AcDbEntity
  8
0
100
AcDbSpline
210
0.0
220
0.0
230
1.0
 70
     8
 71
     3
 72
    20
 73
    16
 74
     0
 42
0.000000001
 43
0.0000000001
 40
0.0053329317694122
 40
0.0053329317694122
 40
0.0053329317694122
 40
0.0053329317694122
 40
0.0056476384891315
 40
0.0056476384891315
 40
0.0060463986206695
 40
0.0060463986206695
 40
0.0065307473524314
 40
0.0065307473524314
 40
0.0071940330919137
 40
0.0071940330919137
 40
0.0085673556246261
 40
0.0085673556246261
 40
0.0106389961058368
 40
0.0106389961058368
 40
0.0111024461256086
 40
0.0111024461256086
 40
0.0111024461256086
 40
0.0111024461256086
 10
21.00010883933724
 20
21.04546313434374
 30
0.0
 10
21.00010883931866
 20
21.04546313135284
 30
0.0
 10
21.00010796018967
 20
21.04532230038334
 30
0.0
 10
21.0001043733522
 20
21.04473468126657
 30
0.0
 10
21.00010121339643
 20
21.04421103332875
 30
0.0
 10
21.00009286789461
 20
21.04276717296954
 30
0.0
 10
21.00008734603777
 20
21.04177610108497
 30
0.0
 10
21.00007384262138
 20
21.03918105370956
 30
0.0
 10
21.00006571149247
 20
21.03748299315832
 30
0.0
 10
21.00004298010617
 20
21.03216377976695
 30
0.0
 10
21.0000298308586
 20
21.02823236316293
 30
0.0
 10
21.00000644319675
 20
21.01793194586449
 30
0.0
 10
21.00000107524831
 20
21.0112625236119
 30
0.0
 10
21.0000062290662
 20
21.00302763682932
 30
0.0
 10
21.00000763232447
 20
21.0015158210168
 30
0.0
 10
21.0000094837118
 20
21.00000001141887
 30
0.0
  0
SPLINE
  5
7F2E
330
7F27
100
AcDbEntity
  8
0
100
AcDbSpline
210
0.0
220
0.0
230
1.0
 70
     8
 71
     3
 72
     8
 73
     4
 74
     0
 42
0.000000001
 43
0.0000000001
 40
0.0
 40
0.0
 40
0.0
 40
0.0
 40
0.0015511722973881
 40
0.0015511722973881
 40
0.0015511722973881
 40
0.0015511722973881
 10
18.99955984654374
 20
21.00000111615405
 30
0.0
 10
18.99956565327773
 20
21.00446881098621
 30
0.0
 10
18.99957076641542
 20
21.00884708259646
 30
0.0
 10
18.99957512909047
 20
21.01307591325001
 30
0.0
  0
SPLINE
  5
7F2F
330
7F27
100
AcDbEntity
  8
0
100
AcDbSpline
210
0.0
220
0.0
230
1.0
 70
     8
 71
     3
 72
    16
 73
    12
 74
     0
 42
0.000000001
 43
0.0000000001
 40
0.0
 40
0.0
 40
0.0
 40
0.0
 40
0.0021186903199093
 40
0.0021186903199093
 40
0.0037963622451507
 40
0.0037963622451507
 40
0.0060490246085227
 40
0.0060490246085227
 40
0.0082160876403395
 40
0.0082160876403395
 40
0.0100715292549786
 40
0.0100715292549786
 40
0.0100715292549786
 40
0.0100715292549786
 10
18.99977770474576
 20
20.99999658852568
 30
0.0
 10
18.99967060329749
 20
21.00696252733174
 30
0.0
 10
18.99956026510945
 20
21.01406431369529
 30
0.0
 10
18.99936153564174
 20
21.02670812236867
 30
0.0
 10
18.99927271955023
 20
21.03230570423986
 30
0.0
 10
18.9990710829779
 20
21.04490249808478
 30
0.0
 10
18.99895813000681
 20
21.05187274943807
 30
0.0
 10
18.99876083651466
 20
21.06395004095439
 30
0.0
 10
18.99867338947078
 20
21.06925360659501
 30
0.0
 10
18.99853375460126
 20
21.07766822553454
 30
0.0
 10
18.99847718641894
 20
21.08105233992764
 30
0.0
 10
18.99842789893795
 20
21.08398349769354
 30
0.0
  0
SPLINE
  5
7F30
330
7F27
100
AcDbEntity
  8
0
100
AcDbSpline
210
0.0
220
0.0
230
1.0
 70
     8
 71
     3
 72
    34
 73
    30
 74
     0
 42
0.000000001
 43
0.0000000001
 40
0.0018967486251217
 40
0.0018967486251217
 40
0.0018967486251217
 40
0.0018967486251217
 40
0.0067931727319295
 40
0.0067931727319295
 40
0.0148581913768474
 40
0.0148581913768474
 40
0.021657184914024
 40
0.021657184914024
 40
0.0241181698021966
 40
0.0241181698021966
 40
0.0262721312898299
 40
0.0262721312898299
 40
0.0291183871831599
 40
0.0291183871831599
 40
0.031530751759563
 40
0.031530751759563
 40
0.0346506122231554
 40
0.0346506122231554
 40
0.0395925135347417
 40
0.0395925135347417
 40
0.0489047057890406
 40
0.0489047057890406
 40
0.0719038676155271
 40
0.0719038676155271
 40
0.1414750771317438
 40
0.1414750771317438
 40
0.2235355594887447
 40
0.2235355594887447
 40
0.2666866390270796
 40
0.2666866390270796
 40
0.2666866390270796
 40
0.2666866390270796
 10
18.99993348246985
 20
21.00385613497498
 30
0.0
 10
18.99986349834607
 20
21.00787307649587
 30
0.0
 10
18.99976194066638
 20
21.0136074567013
 30
0.0
 10
18.99943617417354
 20
21.03150105612279
 30
0.0
 10
18.9991737884882
 20
21.04547918861855
 30
0.0
 10
18.99862147144658
 20
21.07412870329599
 30
0.0
 10
18.9983419499919
 20
21.0883700031343
 30
0.0
 10
18.99789286583086
 20
21.11130009433415
 30
0.0
 10
18.99776556552819
 20
21.11780805693984
 30
0.0
 10
18.99751102450921
 20
21.13092153252437
 30
0.0
 10
18.99738418130294
 20
21.13749612126087
 30
0.0
 10
18.9970816058968
 20
21.15339179506735
 30
0.0
 10
18.99689912507768
 20
21.16314764529942
 30
0.0
 10
18.99658164241724
 20
21.18063166717508
 30
0.0
 10
18.99644054032405
 20
21.18860765047866
 30
0.0
 10
18.99613963783111
 20
21.20613331554207
 30
0.0
 10
18.99598354298159
 20
21.21562309993186
 30
0.0
 10
18.99561575507688
 20
21.2389726012258
 30
0.0
 10
18.9954213301427
 20
21.25235297844256
 30
0.0
 10
18.99492632689995
 20
21.28908043126584
 30
0.0
 10
18.99467887819708
 20
21.3110767144457
 30
0.0
 10
18.99397376948968
 20
21.38483561356798
 30
0.0
 10
18.99373075698797
 20
21.43325150251742
 30
0.0
 10
18.99330497045025
 20
21.6352456261913
 30
0.0
 10
18.99455226238386
 20
21.81157794882683
 30
0.0
 10
18.99793368892908
 20
22.2330328209134
 30
0.0
 10
18.9994379224781
 20
22.48842738154128
 30
0.0
 10
18.99998946837755
 20
22.89397483999987
 30
0.0
 10
18.99998278962572
 20
23.03728082319858
 30
0.0
 10
18.99999053642923
 20
23.18062727206617
 30
0.0
  0
SPLINE
  5
7F31
330
7F27
100
AcDbEntity
  8
0
100
AcDbSpline
210
0.0
220
0.0
230
1.0
 70
     8
 71
     3
 72
    12
 73
     8
 74
     0
 42
0.000000001
 43
0.0000000001
 40
0.0
 40
0.0
 40
0.0
 40
0.0
 40
0.0029758243235304
 40
0.0029758243235304
 40
0.0058215256794666
 40
0.0058215256794666
 40
0.0072783704158215
 40
0.0072783704158215
 40
0.0072783704158215
 40
0.0072783704158215
 10
18.99994049721214
 20
20.99999988528013
 30
0.0
 10
18.99992880390216
 20
21.00662154037203
 30
0.0
 10
18.99991806857501
 20
21.01206107435036
 30
0.0
 10
18.99990164420352
 20
21.01957099871466
 30
0.0
 10
18.99989565462382
 20
21.02187994614258
 30
0.0
 10
18.99989113238841
 20
21.02353292891031
 30
0.0
 10
18.99989035560469
 20
21.02378814465356
 30
0.0
 10
18.99989035560478
 20
21.02378814462377
 30
0.0
  0
SPLINE
  5
7F32
330
7F27
100
AcDbEntity
  8
0
100
AcDbSpline
210
0.0
220
0.0
230
1.0
 70
     8
 71
     3
 72
     8
 73
     4
 74
     0
 42
0.000000001
 43
0.0000000001
 40
0.0
 40
0.0
 40
0.0
 40
0.0
 40
0.0004175946091639
 40
0.0004175946091639
 40
0.0004175946091639
 40
0.0004175946091639
 10
23.60608753399281
 20
23.56246533477603
 30
0.0
 10
23.60571552643361
 20
23.56217722332317
 30
0.0
 10
23.60533670535615
 20
23.56188389096037
 30
0.0
 10
23.60495522773341
 20
23.5615884645554
 30
0.0
  0
SPLINE
  5
7F33
330
7F27
100
AcDbEntity
  8
0
100
AcDbSpline
210
0.0
220
0.0
230
1.0
 70
     8
 71
     3
 72
     8
 73
     4
 74
     0
 42
0.000000001
 43
0.0000000001
 40
0.0
 40
0.0
 40
0.0
 40
0.0
 40
0.0006730460772372
 40
0.0006730460772372
 40
0.0006730460772372
 40
0.0006730460772372
 10
23.60610301841198
 20
23.56244730639212
 30
0.0
 10
23.60468730604972
 20
23.56130750104269
 30
0.0
 10
23.60321072498761
 20
23.56012004013186
 30
0.0
 10
23.60168843918518
 20
23.55889732817092
 30
0.0
  0
LINE
  5
7F34
330
7F27
100
AcDbEntity
  8
0
100
AcDbLine
 10
16.99999999999999
 20
-2.0
 30
0.0
 11
-16.99999999999998
 21
-2.0
 31
0.0
  0
LINE
  5
7F35
330
7F27
100
AcDbEntity
  8
0
100
AcDbLine
 10
-16.99999999999998
 20
0.0
 30
0.0
 11
16.99999999999999
 21
0.0
 31
0.0
  0
LINE
  5
7F36
330
7F27
100
AcDbEntity
  8
0
100
AcDbLine
 10
-23.0
 20
23.56249999999995
 30
0.0
 11
-21.00000000000001
 21
23.56249999999995
 31
0.0
  0
SPLINE
  5
7F37
330
7F27
100
AcDbEntity
  8
0
100
AcDbSpline
210
0.0
220
0.0
230
1.0
 70
     8
 71
     3
 72
    14
 73
    10
 74
     0
 42
0.000000001
 43
0.0000000001
 40
0.0
 40
0.0
 40
0.0
 40
0.0
 40
0.3435149368843839
 40
0.3435149368843839
 40
0.3435149368843839
 40
0.7569946177101712
 40
0.7569946177101712
 40
0.7569946177101712
 40
0.9986524988870149
 40
0.9986524988870149
 40
0.9986524988870149
 40
0.9986524988870149
 10
-23.60606060606065
 20
23.56249999999997
 30
0.0
 10
-23.28490796720452
 20
23.30249636931212
 30
0.0
 10
-22.87246555817525
 20
23.0752940212619
 30
0.0
 10
-22.47647444984694
 20
22.84408179462264
 30
0.0
 10
-21.99983061430814
 20
22.56577786251154
 30
0.0
 10
-21.53729794759644
 20
22.27139780307911
 30
0.0
 10
-21.26242807110221
 20
21.85792704000355
 30
0.0
 10
-21.1017805833701
 20
21.61627437079897
 30
0.0
 10
-21.001116521599
 20
21.36107367674731
 30
0.0
 10
-21.00000922922326
 20
21.00594992131794
 30
0.0
  0
SPLINE
  5
7F38
330
7F27
100
AcDbEntity
  8
0
100
AcDbSpline
210
0.0
220
0.0
230
1.0
 70
     8
 71
     3
 72
    32
 73
    28
 74
     0
 42
0.000000001
 43
0.0000000001
 40
0.0
 40
0.0
 40
0.0
 40
0.0
 40
0.077627258986713
 40
0.077627258986713
 40
0.1568375461108336
 40
0.1568375461108336
 40
0.1970113628272161
 40
0.1970113628272161
 40
0.2169380265924233
 40
0.2169380265924233
 40
0.2318872635099797
 40
0.2318872635099797
 40
0.235901769850892
 40
0.235901769850892
 40
0.2378323868890038
 40
0.2378323868890038
 40
0.2397683975929372
 40
0.2397683975929372
 40
0.2417039644751631
 40
0.2417039644751631
 40
0.245602598099761
 40
0.245602598099761
 40
0.2533492596342632
 40
0.2533492596342632
 40
0.2645733355156243
 40
0.2645733355156243
 40
0.2647525320932945
 40
0.2647525320932945
 40
0.2647525320932945
 40
0.2647525320932945
 10
-18.99999053642921
 20
23.18062727206432
 30
0.0
 10
-18.99997660020494
 20
22.9227521034678
 30
0.0
 10
-18.99994864798297
 20
22.66281401777359
 30
0.0
 10
-18.99779570960451
 20
22.18065856776026
 30
0.0
 10
-18.99540694625435
 20
21.95137850043693
 30
0.0
 10
-18.99366130156693
 20
21.64942476077063
 30
0.0
 10
-18.99342296777765
 20
21.55634261236307
 30
0.0
 10
-18.99377696219717
 20
21.4257614320396
 30
0.0
 10
-18.9940031176259
 20
21.3834632883883
 30
0.0
 10
-18.99473243602214
 20
21.30438429026154
 30
0.0
 10
-18.99514583921612
 20
21.26898212234664
 30
0.0
 10
-18.99600422976437
 20
21.21426546963576
 30
0.0
 10
-18.99620965883524
 20
21.20187756264345
 30
0.0
 10
-18.99654579033404
 20
21.18266794392529
 30
0.0
 10
-18.99666089590315
 20
21.17623863240822
 30
0.0
 10
-18.99689608162995
 20
21.16335981660264
 30
0.0
 10
-18.99701768778913
 20
21.15682797346352
 30
0.0
 10
-18.99725533637258
 20
21.14423757178984
 30
0.0
 10
-18.99737291491957
 20
21.13809508425907
 30
0.0
 10
-18.99770875714565
 20
21.12068471872583
 30
0.0
 10
-18.99791288235389
 20
21.11027403219624
 30
0.0
 10
-18.99846186508782
 20
21.08225944077254
 30
0.0
 10
-18.99876844263046
 20
21.06659052068281
 30
0.0
 10
-18.99943594676885
 20
21.03166944726436
 30
0.0
 10
-18.99976062169703
 20
21.0137662168979
 30
0.0
 10
-18.99992841807424
 20
21.00415064360246
 30
0.0
 10
-18.99993101374768
 20
21.00400177168552
 30
0.0
 10
-18.99993356836812
 20
21.0038551418444
 30
0.0
  0
SPLINE
  5
7F39
330
7F27
100
AcDbEntity
  8
0
100
AcDbSpline
210
0.0
220
0.0
230
1.0
 70
     8
 71
     3
 72
     8
 73
     4
 74
     0
 42
0.000000001
 43
0.0000000001
 40
0.0195591670807597
 40
0.0195591670807597
 40
0.0195591670807597
 40
0.0195591670807597
 40
0.0211163138441987
 40
0.0211163138441987
 40
0.0211163138441987
 40
0.0211163138441987
 10
-18.99957522640428
 20
21.0130777805147
 30
0.0
 10
-18.99957087693841
 20
21.00886175379298
 30
0.0
 10
-18.99956567564284
 20
21.00448601867562
 30
0.0
 10
-18.99955984654375
 20
21.00000111615405
 30
0.0
  0
SPLINE
  5
7F3A
330
7F27
100
AcDbEntity
  8
0
100
AcDbSpline
210
0.0
220
0.0
230
1.0
 70
     8
 71
     3
 72
    16
 73
    12
 74
     0
 42
0.000000001
 43
0.0000000001
 40
0.0328453665101193
 40
0.0328453665101193
 40
0.0328453665101193
 40
0.0328453665101193
 40
0.0346121744737859
 40
0.0346121744737859
 40
0.0362943913485682
 40
0.0362943913485682
 40
0.0388726349374423
 40
0.0388726349374423
 40
0.0410449481778462
 40
0.0410449481778462
 40
0.0429128583262513
 40
0.0429128583262513
 40
0.0429128583262513
 40
0.0429128583262513
 10
-18.99842789914895
 20
21.08398349500732
 30
0.0
 10
-18.9984748452199
 20
21.08119158238228
 30
0.0
 10
-18.99852835648798
 20
21.07799109581498
 30
0.0
 10
-18.99864665533843
 20
21.07086662607735
 30
0.0
 10
-18.99871142260814
 20
21.06694586429728
 30
0.0
 10
-18.9988909701572
 20
21.05600293294972
 30
0.0
 10
-18.99901757414435
 20
21.0482218225979
 30
0.0
 10
-18.99925928464498
 20
21.03315934997131
 30
0.0
 10
-18.99937543019207
 20
21.0258402675884
 30
0.0
 10
-18.9995865029096
 20
21.01237473311313
 30
0.0
 10
-18.99968328043078
 20
21.00613799940896
 30
0.0
 10
-18.99977770474577
 20
20.99999658852567
 30
0.0
  0
SPLINE
  5
7F3B
330
7F27
100
AcDbEntity
  8
0
100
AcDbSpline
210
0.0
220
0.0
230
1.0
 70
     8
 71
     3
 72
    12
 73
     8
 74
     0
 42
0.000000001
 43
0.0000000001
 40
0.013636934019243
 40
0.013636934019243
 40
0.013636934019243
 40
0.013636934019243
 40
0.0164694687966348
 40
0.0164694687966348
 40
0.0184310996960373
 40
0.0184310996960373
 40
0.020917287890997
 40
0.020917287890997
 40
0.020917287890997
 40
0.020917287890997
 10
-18.99989035560478
 20
21.02378814462484
 30
0.0
 10
-18.99989035560467
 20
21.02378814466093
 30
0.0
 10
-18.99989338796227
 20
21.02279922134144
 30
0.0
 10
-18.99990290153702
 20
21.01893262351296
 30
0.0
 10
-18.99990804541264
 20
21.01671389023945
 30
0.0
 10
-18.99992165032678
 20
21.0102427883605
 30
0.0
 10
-18.99993072789577
 20
21.00553202660663
 30
0.0
 10
-18.99994049721213
 20
20.99999988528012
 30
0.0
  0
SPLINE
  5
7F3C
330
7F27
100
AcDbEntity
  8
0
100
AcDbSpline
210
0.0
220
0.0
230
1.0
 70
     8
 71
     3
 72
    16
 73
    12
 74
     0
 42
0.000000001
 43
0.0000000001
 40
0.0
 40
0.0
 40
0.0
 40
0.0
 40
0.004114770128668
 40
0.004114770128668
 40
0.0050669104883254
 40
0.0050669104883254
 40
0.0058958097617209
 40
0.0058958097617209
 40
0.0067234516662362
 40
0.0067234516662362
 40
0.0081601476133395
 40
0.0081601476133395
 40
0.0081601476133395
 40
0.0081601476133395
 10
-21.00007431501592
 20
21.0000000778712
 30
0.0
 10
-21.0000523603086
 20
21.0134832117648
 30
0.0
 10
-21.00007089001968
 20
21.0274361194389
 30
0.0
 10
-21.00015518626332
 20
21.04264323900548
 30
0.0
 10
-21.00017334253694
 20
21.04537391437973
 30
0.0
 10
-21.00020680359941
 20
21.04980909452227
 30
0.0
 10
-21.00022231882114
 20
21.05162998386835
 30
0.0
 10
-21.00024914482347
 20
21.05457669177262
 30
0.0
 10
-21.00026066602989
 20
21.05573299465
 30
0.0
 10
-21.00028457044054
 20
21.05805391642803
 30
0.0
 10
-21.00029164702537
 20
21.05864902334501
 30
0.0
 10
-21.00029164702527
 20
21.0586490233367
 30
0.0
  0
SPLINE
  5
7F3D
330
7F27
100
AcDbEntity
  8
0
100
AcDbSpline
210
0.0
220
0.0
230
1.0
 70
     8
 71
     3
 72
    18
 73
    14
 74
     0
 42
0.000000001
 43
0.0000000001
 40
0.0
 40
0.0
 40
0.0
 40
0.0
 40
0.0020456844363956
 40
0.0020456844363956
 40
0.0037103801583405
 40
0.0037103801583405
 40
0.0047886577051131
 40
0.0047886577051131
 40
0.0054058582611443
 40
0.0054058582611443
 40
0.0056713596115006
 40
0.0056713596115006
 40
0.0057658589803417
 40
0.0057658589803417
 40
0.0057658589803417
 40
0.0057658589803417
 10
-21.0000094837118
 20
21.00000001141888
 30
0.0
 10
-21.00000131162401
 20
21.00669084747623
 30
0.0
 10
-21.0000021167284
 20
21.0133508615607
 30
0.0
 10
-21.00001995709023
 20
21.02478352041206
 30
0.0
 10
-21.00003405059793
 20
21.02972464725794
 30
0.0
 10
-21.00006334256595
 20
21.0370686788667
 30
0.0
 10
-21.00007727322457
 20
21.03991934663935
 30
0.0
 10
-21.0000960428954
 20
21.04334273339571
 30
0.0
 10
-21.00010217954335
 20
21.04437249650606
 30
0.0
 10
-21.00010716091214
 20
21.04519218286736
 30
0.0
 10
-21.00010818416281
 20
21.04535741766607
 30
0.0
 10
-21.00010876159655
 20
21.04545062482884
 30
0.0
 10
-21.00010883935397
 20
21.04546313703378
 30
0.0
 10
-21.00010883933727
 20
21.04546313434666
 30
0.0
  0
SPLINE
  5
7F3E
330
7F27
100
AcDbEntity
  8
0
100
AcDbSpline
210
0.0
220
0.0
230
1.0
 70
     8
 71
     3
 72
     8
 73
     4
 74
     0
 42
0.000000001
 43
0.0000000001
 40
0.0
 40
0.0
 40
0.0
 40
0.0
 40
0.0007553735405896
 40
0.0007553735405896
 40
0.0007553735405896
 40
0.0007553735405896
 10
-21.00001229121412
 20
21.00000003232192
 30
0.0
 10
-21.00000829356455
 20
21.00152215327359
 30
0.0
 10
-21.00000418230277
 20
21.00313666777698
 30
0.0
 10
-21.00000000000001
 20
21.0048382546317
 30
0.0
  0
SPLINE
  5
7F3F
330
7F27
100
AcDbEntity
  8
0
100
AcDbSpline
210
0.0
220
0.0
230
1.0
 70
     8
 71
     3
 72
     8
 73
     4
 74
     0
 42
0.000000001
 43
0.0000000001
 40
0.2816853895409013
 40
0.2816853895409013
 40
0.2816853895409013
 40
0.2816853895409013
 40
0.282358486240039
 40
0.282358486240039
 40
0.282358486240039
 40
0.282358486240039
 10
-23.60168901146331
 20
23.55889785064786
 30
0.0
 10
-23.60321156178468
 20
23.56012077507249
 30
0.0
 10
-23.60468719956961
 20
23.56130741531439
 30
0.0
 10
-23.60610301841199
 20
23.56244730639213
 30
0.0
  0
SPLINE
  5
7F40
330
7F27
100
AcDbEntity
  8
0
100
AcDbSpline
210
0.0
220
0.0
230
1.0
 70
     8
 71
     3
 72
     8
 73
     4
 74
     0
 42
0.000000001
 43
0.0000000001
 40
0.0184886274992354
 40
0.0184886274992354
 40
0.0184886274992354
 40
0.0184886274992354
 40
0.0189064975953852
 40
0.0189064975953852
 40
0.0189064975953852
 40
0.0189064975953852
 10
-23.60495655112487
 20
23.56158945712924
 30
0.0
 10
-23.60533779109933
 20
23.56188469949307
 30
0.0
 10
-23.60571528102039
 20
23.56217703325619
 30
0.0
 10
-23.60608753399281
 20
23.56246533477605
 30
0.0
  0
ARC
  5
7F41
330
7F27
100
AcDbEntity
  8
0
100
AcDbCircle
 10
-16.99999999999998
 20
2.0
 30
0.0
 40
4.000000000000001
100
AcDbArc
 50
180.0
 51
270.0
  0
ARC
  5
7F42
330
7F27
100
AcDbEntity
  8
0
100
AcDbCircle
 10
-16.99999999999998
 20
2.0
 30
0.0
 40
2.000000000000001
100
AcDbArc
 50
180.0
 51
270.0000000000001
  0
ARC
  5
7F43
330
7F27
100
AcDbEntity
  8
0
100
AcDbCircle
 10
16.99999999999998
 20
2.0
 30
0.0
 40
4.000000000000001
100
AcDbArc
 50
269.9999999999999
 51
0.0
  0
LINE
  5
7F44
330
7F27
100
AcDbEntity
  8
0
100
AcDbLine
 10
23.60606060606067
 20
23.56249999999994
 30
0.0
 11
60.50000000000006
 21
53.99999999999997
 31
0.0
  0
LINE
  5
7F45
330
7F27
100
AcDbEntity
  8
0
100
AcDbLine
 10
18.99999999999999
 20
21.0
 30
0.0
 11
19.0
 21
53.99999999999997
 31
0.0
  0
LINE
  5
7F46
330
7F27
100
AcDbEntity
  8
0
100
AcDbLine
 10
20.99999999999999
 20
21.0
 30
0.0
 11
18.99999999999999
 21
21.0
 31
0.0
  0
LINE
  5
7F47
330
7F27
100
AcDbEntity
  8
0
100
AcDbLine
 10
21.0
 20
53.99999999999997
 30
0.0
 11
20.99999999999999
 21
21.0
 31
0.0
  0
LINE
  5
7F48
330
7F27
100
AcDbEntity
  8
0
100
AcDbLine
 10
21.0
 20
53.99999999999997
 30
0.0
 11
19.0
 21
53.99999999999997
 31
0.0
  0
LINE
  5
7F49
330
7F27
100
AcDbEntity
  8
0
100
AcDbLine
 10
19.0
 20
53.99999999999997
 30
0.0
 11
19.0
 21
150.9999999999999
 31
0.0
  0
LINE
  5
7F4A
330
7F27
100
AcDbEntity
  8
0
100
AcDbLine
 10
21.0
 20
150.9999999999999
 30
0.0
 11
21.0
 21
53.99999999999997
 31
0.0
  0
LINE
  5
7F4B
330
7F27
100
AcDbEntity
  8
0
100
AcDbLine
 10
19.0
 20
150.9999999999999
 30
0.0
 11
21.0
 21
150.9999999999999
 31
0.0
  0
LINE
  5
7F4C
330
7F27
100
AcDbEntity
  8
0
100
AcDbLine
 10
20.99999999999999
 20
21.0
 30
0.0
 11
20.99999999999999
 21
1.999999999999999
 31
0.0
  0
LINE
  5
7F4D
330
7F27
100
AcDbEntity
  8
0
100
AcDbLine
 10
18.99999999999998
 20
2.0
 30
0.0
 11
18.99999999999999
 21
21.0
 31
0.0
  0
ARC
  5
7F4E
330
7F27
100
AcDbEntity
  8
0
100
AcDbCircle
 10
16.99999999999998
 20
2.0
 30
0.0
 40
2.000000000000001
100
AcDbArc
 50
269.9999999999999
 51
0.0
  0
LINE
  5
7F4F
330
7F27
100
AcDbEntity
  8
0
100
AcDbLine
 10
22.99999999999999
 20
151.0
 30
0.0
 11
21.00000000000001
 21
151.0
 31
0.0
  0
LINE
  5
7F50
330
7F27
100
AcDbEntity
  8
0
100
AcDbLine
 10
60.50000000000006
 20
53.99999999999997
 30
0.0
 11
60.5
 21
151.0
 31
0.0
  0
LINE
  5
7F51
330
7F27
100
AcDbEntity
  8
0
100
AcDbLine
 10
60.5
 20
151.0
 30
0.0
 11
22.99999999999999
 21
151.0
 31
0.0
  0
CIRCLE
  5
7F52
330
7F27
100
AcDbEntity
  8
0
100
AcDbCircle
 10
41.0
 20
131.0
 30
0.0
 40
6.5
  0
CIRCLE
  5
7F53
330
7F27
100
AcDbEntity
  8
0
100
AcDbCircle
 10
52.00000000000001
 20
136.0
 30
0.0
 40
2.5
  0
LINE
  5
7F54
330
7F27
100
AcDbEntity
  8
0
100
AcDbLine
 10
-60.50000000000006
 20
53.99999999999997
 30
0.0
 11
-23.60606060606067
 21
23.56249999999994
 31
0.0
  0
LINE
  5
7F55
330
7F27
100
AcDbEntity
  8
0
100
AcDbLine
 10
-19.0
 20
53.99999999999997
 30
0.0
 11
-18.99999999999999
 21
21.0
 31
0.0
  0
LINE
  5
7F56
330
7F27
100
AcDbEntity
  8
0
100
AcDbLine
 10
-21.0
 20
53.99999999999997
 30
0.0
 11
-19.0
 21
53.99999999999997
 31
0.0
  0
LINE
  5
7F57
330
7F27
100
AcDbEntity
  8
0
100
AcDbLine
 10
-20.99999999999999
 20
21.0
 30
0.0
 11
-21.0
 21
53.99999999999997
 31
0.0
  0
LINE
  5
7F58
330
7F27
100
AcDbEntity
  8
0
100
AcDbLine
 10
-18.99999999999999
 20
21.0
 30
0.0
 11
-20.99999999999999
 21
21.0
 31
0.0
  0
LINE
  5
7F59
330
7F27
100
AcDbEntity
  8
0
100
AcDbLine
 10
-19.0
 20
150.9999999999999
 30
0.0
 11
-19.0
 21
53.99999999999997
 31
0.0
  0
LINE
  5
7F5A
330
7F27
100
AcDbEntity
  8
0
100
AcDbLine
 10
-21.0
 20
150.9999999999999
 30
0.0
 11
-19.0
 21
150.9999999999999
 31
0.0
  0
LINE
  5
7F5B
330
7F27
100
AcDbEntity
  8
0
100
AcDbLine
 10
-21.0
 20
53.99999999999997
 30
0.0
 11
-21.0
 21
150.9999999999999
 31
0.0
  0
CIRCLE
  5
7F5C
330
7F27
100
AcDbEntity
  8
0
100
AcDbCircle
 10
-41.0
 20
61.0
 30
0.0
 40
6.5
  0
CIRCLE
  5
7F5D
330
7F27
100
AcDbEntity
  8
0
100
AcDbCircle
 10
41.0
 20
61.0
 30
0.0
 40
6.5
  0
CIRCLE
  5
7F5E
330
7F27
100
AcDbEntity
  8
0
100
AcDbCircle
 10
-41.0
 20
131.0
 30
0.0
 40
6.5
  0
CIRCLE
  5
7F5F
330
7F27
100
AcDbEntity
  8
0
100
AcDbCircle
 10
-30.0
 20
46.0
 30
0.0
 40
2.5
  0
CIRCLE
  5
7F60
330
7F27
100
AcDbEntity
  8
0
100
AcDbCircle
 10
-30.0
 20
66.0
 30
0.0
 40
2.5
  0
CIRCLE
  5
7F61
330
7F27
100
AcDbEntity
  8
0
100
AcDbCircle
 10
-30.0
 20
86.0
 30
0.0
 40
2.5
  0
CIRCLE
  5
7F62
330
7F27
100
AcDbEntity
  8
0
100
AcDbCircle
 10
-30.0
 20
106.0
 30
0.0
 40
2.5
  0
CIRCLE
  5
7F63
330
7F27
100
AcDbEntity
  8
0
100
AcDbCircle
 10
-30.0
 20
126.0
 30
0.0
 40
2.5
  0
CIRCLE
  5
7F64
330
7F27
100
AcDbEntity
  8
0
100
AcDbCircle
 10
30.0
 20
46.0
 30
0.0
 40
2.5
  0
CIRCLE
  5
7F65
330
7F27
100
AcDbEntity
  8
0
100
AcDbCircle
 10
30.0
 20
66.0
 30
0.0
 40
2.5
  0
CIRCLE
  5
7F66
330
7F27
100
AcDbEntity
  8
0
100
AcDbCircle
 10
30.0
 20
86.0
 30
0.0
 40
2.5
  0
CIRCLE
  5
7F67
330
7F27
100
AcDbEntity
  8
0
100
AcDbCircle
 10
30.0
 20
106.0
 30
0.0
 40
2.5
  0
CIRCLE
  5
7F68
330
7F27
100
AcDbEntity
  8
0
100
AcDbCircle
 10
30.0
 20
126.0
 30
0.0
 40
2.5
  0
CIRCLE
  5
7F69
330
7F27
100
AcDbEntity
  8
0
100
AcDbCircle
 10
-30.0
 20
146.0
 30
0.0
 40
2.5
  0
CIRCLE
  5
7F6A
330
7F27
100
AcDbEntity
  8
0
100
AcDbCircle
 10
30.0
 20
146.0
 30
0.0
 40
2.5
  0
CIRCLE
  5
7F6B
330
7F27
100
AcDbEntity
  8
0
100
AcDbCircle
 10
-52.00000000000001
 20
56.0
 30
0.0
 40
2.5
  0
CIRCLE
  5
7F6C
330
7F27
100
AcDbEntity
  8
0
100
AcDbCircle
 10
-52.00000000000001
 20
76.0
 30
0.0
 40
2.5
  0
CIRCLE
  5
7F6D
330
7F27
100
AcDbEntity
  8
0
100
AcDbCircle
 10
-52.00000000000001
 20
96.0
 30
0.0
 40
2.5
  0
CIRCLE
  5
7F6E
330
7F27
100
AcDbEntity
  8
0
100
AcDbCircle
 10
-52.00000000000001
 20
116.0
 30
0.0
 40
2.5
  0
CIRCLE
  5
7F6F
330
7F27
100
AcDbEntity
  8
0
100
AcDbCircle
 10
52.00000000000001
 20
56.0
 30
0.0
 40
2.5
  0
CIRCLE
  5
7F70
330
7F27
100
AcDbEntity
  8
0
100
AcDbCircle
 10
52.00000000000001
 20
76.0
 30
0.0
 40
2.5
  0
CIRCLE
  5
7F71
330
7F27
100
AcDbEntity
  8
0
100
AcDbCircle
 10
52.00000000000001
 20
96.0
 30
0.0
 40
2.5
  0
CIRCLE
  5
7F72
330
7F27
100
AcDbEntity
  8
0
100
AcDbCircle
 10
52.00000000000001
 20
116.0
 30
0.0
 40
2.5
  0
CIRCLE
  5
7F73
330
7F27
100
AcDbEntity
  8
0
100
AcDbCircle
 10
-52.00000000000001
 20
136.0
 30
0.0
 40
2.5
  0
LINE
  5
7F74
330
7F27
100
AcDbEntity
  8
0
100
AcDbLine
 10
-60.5
 20
151.0
 30
0.0
 11
-22.99999999999999
 21
151.0
 31
0.0
  0
LINE
  5
7F75
330
7F27
100
AcDbEntity
  8
0
100
AcDbLine
 10
-60.50000000000006
 20
53.99999999999997
 30
0.0
 11
-60.5
 21
151.0
 31
0.0
  0
LINE
  5
7F76
330
7F27
100
AcDbEntity
  8
0
100
AcDbLine
 10
-18.99999999999998
 20
2.0
 30
0.0
 11
-18.99999999999999
 21
21.0
 31
0.0
  0
LINE
  5
7F77
330
7F27
100
AcDbEntity
  8
0
100
AcDbLine
 10
-20.99999999999999
 20
21.0
 30
0.0
 11
-20.99999999999999
 21
1.999999999999999
 31
0.0
  0
LINE
  5
7F78
330
7F27
100
AcDbEntity
  8
0
100
AcDbLine
 10
-22.99999999999999
 20
151.0
 30
0.0
 11
-21.00000000000001
 21
151.0
 31
0.0
  0
ENDBLK
  5
7F29
330
7F27
100
AcDbEntity
  8
0
100
AcDbBlockEnd
  0
BLOCK
  5
7F7A
330
7F79
100
AcDbEntity
  8
0
100
AcDbBlockBegin
  2
SAE340_38_2-Left
 70
     0
 10
0.0
 20
0.0
 30
0.0
  3
SAE340_38_2-Left
  1

  0
LINE
  5
7F7C
330
7F79
100
AcDbEntity
  8
0
100
AcDbLine
 10
2.000000000000003
 20
-2.0
 30
0.0
 11
86.0
 21
-2.0
 31
0.0
  0
LINE
  5
7F7D
330
7F79
100
AcDbEntity
  8
0
100
AcDbLine
 10
2.000000000000011
 20
2.000000000000004
 30
0.0
 11
2.000000000000003
 21
-1.999999999999999
 31
0.0
  0
LINE
  5
7F7E
330
7F79
100
AcDbEntity
  8
0
100
AcDbLine
 10
86.0
 20
-2.0
 30
0.0
 11
86.0
 21
2.0
 31
0.0
  0
SPLINE
  5
7F7F
330
7F79
100
AcDbEntity
  8
0
100
AcDbSpline
210
0.0
220
0.0
230
1.0
 70
     8
 71
     3
 72
    14
 73
    10
 74
     0
 42
0.000000001
 43
0.0000000001
 40
-0.4813026533005547
 40
-0.4813026533005547
 40
-0.4813026533005547
 40
-0.4813026533005547
 40
-0.3760960080974989
 40
-0.3760960080974989
 40
-0.3760960080974989
 40
-0.0765284972657522
 40
-0.0765284972657522
 40
-0.0765284972657522
 40
0.0
 40
0.0
 40
0.0
 40
0.0
 10
0.9454120927545412
 20
22.73176011522134
 30
0.0
 10
0.8408297880018832
 20
22.7686761860808
 30
0.0
 10
0.7371129357554106
 20
22.80054090483202
 30
0.0
 10
0.6388614064340238
 20
22.83423666321329
 30
0.0
 10
0.3590980320063664
 20
22.93018264119196
 30
0.0
 10
0.1217220476535411
 20
23.04001612968018
 30
0.0
 10
0.0342615816127144
 20
23.31443386956375
 30
0.0
 10
0.0119186445642904
 20
23.38453752398891
 30
0.0
 10
0.0000045452574068
 20
23.46769665104628
 30
0.0
 10
0.0000000001152107
 20
23.56250000004003
 30
0.0
  0
SPLINE
  5
7F80
330
7F79
100
AcDbEntity
  8
0
100
AcDbSpline
210
0.0
220
0.0
230
1.0
 70
     8
 71
     3
 72
    14
 73
    10
 74
     0
 42
0.000000001
 43
0.0000000001
 40
0.0
 40
0.0
 40
0.0
 40
0.0
 40
0.3435149368843839
 40
0.3435149368843839
 40
0.3435149368843839
 40
0.7569946177101712
 40
0.7569946177101712
 40
0.7569946177101712
 40
1.0
 40
1.0
 40
1.0
 40
1.0
 10
2.000000000000014
 20
23.56249999999997
 30
0.0
 10
2.000036879631406
 20
23.30249636931212
 30
0.0
 10
1.996834167074752
 20
23.0752940212619
 30
0.0
 10
1.998676128321907
 20
22.84408179462264
 30
0.0
 10
2.000893247482649
 20
22.56577786251154
 30
0.0
 10
2.001072402909165
 20
22.27139780307911
 30
0.0
 10
2.001124325805046
 20
21.85792704000355
 30
0.0
 10
2.00115484131463
 20
21.6149268987483
 30
0.0
 10
2.000250547667963
 20
21.35822722195017
 30
0.0
 10
1.999999999992559
 20
21.00000000165235
 30
0.0
  0
LINE
  5
7F81
330
7F79
100
AcDbEntity
  8
0
100
AcDbLine
 10
0.0
 20
23.56249999999994
 30
0.0
 11
2.000000000000013
 21
23.56249999999994
 31
0.0
  0
SPLINE
  5
7F82
330
7F79
100
AcDbEntity
  8
0
100
AcDbSpline
210
0.0
220
0.0
230
1.0
 70
     8
 71
     3
 72
    18
 73
    14
 74
     0
 42
0.000000001
 43
0.0000000001
 40
0.0
 40
0.0
 40
0.0
 40
0.0
 40
0.0045852970579977
 40
0.0045852970579977
 40
0.006540084251429
 40
0.006540084251429
 40
0.0081563837466211
 40
0.0081563837466211
 40
0.0096016091883809
 40
0.0096016091883809
 40
0.0108226894114225
 40
0.0108226894114225
 40
0.0118646463036131
 40
0.0118646463036131
 40
0.0118646463036131
 40
0.0118646463036131
 10
1.999557272916896
 20
20.99999849441624
 30
0.0
 10
1.999513512481354
 20
21.01475837640091
 30
0.0
 10
1.999424163707935
 20
21.02919075199891
 30
0.0
 10
1.999253402761444
 20
21.04675570000882
 30
0.0
 10
1.99919685051636
 20
21.05166987405999
 30
0.0
 10
1.999091149929635
 20
21.0597273308267
 30
0.0
 10
1.999042050576914
 20
21.06305924746231
 30
0.0
 10
1.998954621983232
 20
21.06851913180991
 30
0.0
 10
1.998915397065329
 20
21.07075700162417
 30
0.0
 10
1.998855183922989
 20
21.07401363506151
 30
0.0
 10
1.998832157108763
 20
21.07517781410003
 30
0.0
 10
1.998803973822274
 20
21.07656460255119
 30
0.0
 10
1.998796572755361
 20
21.07690723965371
 30
0.0
 10
1.998796572807151
 20
21.07690723725117
 30
0.0
  0
SPLINE
  5
7F83
330
7F79
100
AcDbEntity
  8
0
100
AcDbSpline
210
0.0
220
0.0
230
1.0
 70
     8
 71
     3
 72
    10
 73
     6
 74
     0
 42
0.000000001
 43
0.0000000001
 40
0.0052676618454188
 40
0.0052676618454188
 40
0.0052676618454188
 40
0.0052676618454188
 40
0.0058868978016923
 40
0.0058868978016923
 40
0.0081855527211016
 40
0.0081855527211016
 40
0.0081855527211016
 40
0.0081855527211016
 10
1.999414228066338
 20
21.02852502901094
 30
0.0
 10
1.999398483572501
 20
21.02921804076139
 30
0.0
 10
1.999384018194631
 20
21.02984412926668
 30
0.0
 10
1.999322897808047
 20
21.03245947193592
 30
0.0
 10
1.999295499695589
 20
21.03354692650731
 30
0.0
 10
1.999295499749871
 20
21.03354692432458
 30
0.0
  0
SPLINE
  5
7F84
330
7F79
100
AcDbEntity
  8
0
100
AcDbSpline
210
0.0
220
0.0
230
1.0
 70
     8
 71
     3
 72
    32
 73
    28
 74
     0
 42
0.000000001
 43
0.0000000001
 40
0.0045473817621324
 40
0.0045473817621324
 40
0.0045473817621324
 40
0.0045473817621324
 40
0.0052697395139369
 40
0.0052697395139369
 40
0.0092354522699028
 40
0.0092354522699028
 40
0.0117315606295841
 40
0.0117315606295841
 40
0.0138523607148321
 40
0.0138523607148321
 40
0.0172611519212143
 40
0.0172611519212143
 40
0.0261321724962347
 40
0.0261321724962347
 40
0.0527623643189969
 40
0.0527623643189969
 40
0.0889482846874591
 40
0.0889482846874591
 40
0.1145384727421593
 40
0.1145384727421593
 40
0.1518181078218001
 40
0.1518181078218001
 40
0.1853167196312488
 40
0.1853167196312488
 40
0.2269370649107835
 40
0.2269370649107835
 40
0.2446335212510676
 40
0.2446335212510676
 40
0.2446335212510676
 40
0.2446335212510676
 10
1.999453047720146
 20
21.02279542166023
 30
0.0
 10
1.999422986250392
 20
21.02392487586829
 30
0.0
 10
1.999392437853217
 20
21.02505295151493
 30
0.0
 10
1.999189551828187
 20
21.03241745868647
 30
0.0
 10
1.9990041200447
 20
21.03875904587601
 30
0.0
 10
1.998515703025521
 20
21.05335128886624
 30
0.0
 10
1.998269373614094
 20
21.0602919013206
 30
0.0
 10
1.997729630210489
 20
21.07412658053285
 30
0.0
 10
1.997447670566661
 20
21.08090569267633
 30
0.0
 10
1.996652403116689
 20
21.09873068293239
 30
0.0
 10
1.996098018307631
 20
21.10998894907051
 30
0.0
 10
1.993900550794229
 20
21.15050913576935
 30
0.0
 10
1.991925809009072
 20
21.17997136740556
 30
0.0
 10
1.982426631773394
 20
21.29742877268253
 30
0.0
 10
1.971735198814179
 20
21.38490574118128
 30
0.0
 10
1.936108380209974
 20
21.58974235994055
 30
0.0
 10
1.907051218428595
 20
21.70804920829404
 30
0.0
 10
1.83887118297444
 20
21.90223815790803
 30
0.0
 10
1.804834188126081
 20
21.98109086171087
 30
0.0
 10
1.708090538397155
 20
22.16249453397053
 30
0.0
 10
1.637669278951281
 20
22.2612668769261
 30
0.0
 10
1.493722582809285
 20
22.41704852788292
 30
0.0
 10
1.420228718940391
 20
22.47927423009389
 30
0.0
 10
1.254517310940152
 20
22.59488639178345
 30
0.0
 10
1.160200334073969
 20
22.64438618785845
 30
0.0
 10
1.024260897493407
 20
22.70235777428351
 30
0.0
 10
0.9834047208608399
 20
22.71807338396612
 30
0.0
 10
0.9420912521258994
 20
22.73259712963914
 30
0.0
  0
LINE
  5
7F85
330
7F79
100
AcDbEntity
  8
0
100
AcDbLine
 10
2.000000000000011
 20
2.000000000000003
 30
0.0
 11
2.000000000000011
 21
21.0
 31
0.0
  0
LINE
  5
7F86
330
7F79
100
AcDbEntity
  8
0
100
AcDbLine
 10
2.000000000000001
 20
53.99999999999997
 30
0.0
 11
2.000000000000013
 21
23.56249999999994
 31
0.0
  0
LINE
  5
7F87
330
7F79
100
AcDbEntity
  8
0
100
AcDbLine
 10
0.0
 20
53.99999999999997
 30
0.0
 11
2.000000000000001
 21
53.99999999999997
 31
0.0
  0
LINE
  5
7F88
330
7F79
100
AcDbEntity
  8
0
100
AcDbLine
 10
0.0
 20
23.56249999999994
 30
0.0
 11
0.0
 21
53.99999999999997
 31
0.0
  0
LINE
  5
7F89
330
7F79
100
AcDbEntity
  8
0
100
AcDbLine
 10
86.00000000000001
 20
21.0
 30
0.0
 11
46.00000000000001
 21
53.99999999999997
 31
0.0
  0
LINE
  5
7F8A
330
7F79
100
AcDbEntity
  8
0
100
AcDbLine
 10
46.00000000000001
 20
53.99999999999997
 30
0.0
 11
46.0
 21
150.9999999999999
 31
0.0
  0
LINE
  5
7F8B
330
7F79
100
AcDbEntity
  8
0
100
AcDbLine
 10
2.000000000000001
 20
53.99999999999997
 30
0.0
 11
2.00000000000001
 21
151.0
 31
0.0
  0
LINE
  5
7F8C
330
7F79
100
AcDbEntity
  8
0
100
AcDbLine
 10
86.00000000000001
 20
21.0
 30
0.0
 11
86.0
 21
1.999999999999999
 31
0.0
  0
LINE
  5
7F8D
330
7F79
100
AcDbEntity
  8
0
100
AcDbLine
 10
4.000000000000003
 20
151.0
 30
0.0
 11
46.0
 21
150.9999999999999
 31
0.0
  0
LINE
  5
7F8E
330
7F79
100
AcDbEntity
  8
0
100
AcDbLine
 10
0.0
 20
151.0
 30
0.0
 11
2.00000000000001
 21
151.0
 31
0.0
  0
LINE
  5
7F8F
330
7F79
100
AcDbEntity
  8
0
100
AcDbLine
 10
0.0
 20
53.99999999999997
 30
0.0
 11
0.0
 21
151.0
 31
0.0
  0
LINE
  5
7F90
330
7F79
100
AcDbEntity
  8
0
100
AcDbLine
 10
2.000000000000007
 20
151.0
 30
0.0
 11
4.000000000000003
 21
151.0
 31
0.0
  0
CIRCLE
  5
7F91
330
7F79
100
AcDbEntity
  8
0
100
AcDbCircle
 10
38.5
 20
45.99999999999997
 30
0.0
 40
2.5
  0
CIRCLE
  5
7F92
330
7F79
100
AcDbEntity
  8
0
100
AcDbCircle
 10
38.5
 20
65.99999999999997
 30
0.0
 40
2.5
  0
CIRCLE
  5
7F93
330
7F79
100
AcDbEntity
  8
0
100
AcDbCircle
 10
38.5
 20
85.99999999999997
 30
0.0
 40
2.5
  0
CIRCLE
  5
7F94
330
7F79
100
AcDbEntity
  8
0
100
AcDbCircle
 10
38.5
 20
106.0
 30
0.0
 40
2.5
  0
CIRCLE
  5
7F95
330
7F79
100
AcDbEntity
  8
0
100
AcDbCircle
 10
38.5
 20
126.0
 30
0.0
 40
2.5
  0
CIRCLE
  5
7F96
330
7F79
100
AcDbEntity
  8
0
100
AcDbCircle
 10
38.5
 20
145.9999999999999
 30
0.0
 40
2.5
  0
SPLINE
  5
7F97
330
7F79
100
AcDbEntity
  8
0
100
AcDbSpline
210
0.0
220
0.0
230
1.0
 70
     8
 71
     3
 72
     8
 73
     4
 74
     0
 42
0.000000001
 43
0.0000000001
 40
0.0
 40
0.0
 40
0.0
 40
0.0
 40
0.0024158828172612
 40
0.0024158828172612
 40
0.0024158828172612
 40
0.0024158828172612
 10
1.999557272916896
 20
20.99999849441624
 30
0.0
 10
1.999534216595143
 20
21.00777512149635
 30
0.0
 10
1.99949921424138
 20
21.01546438923304
 30
0.0
 10
1.999453047720139
 20
21.02279542166041
 30
0.0
  0
ENDBLK
  5
7F7B
330
7F79
100
AcDbEntity
  8
0
100
AcDbBlockEnd
  0
BLOCK
  5
7F99
330
7F98
100
AcDbEntity
  8
0
100
AcDbBlockBegin
  2
SAE340_38_2-Right
 70
     0
 10
0.0
 20
0.0
 30
0.0
  3
SAE340_38_2-Right
  1

  0
SPLINE
  5
7F9B
330
7F98
100
AcDbEntity
  8
0
100
AcDbSpline
210
0.0
220
0.0
230
1.0
 70
     8
 71
     3
 72
    14
 73
    10
 74
     0
 42
0.000000001
 43
0.0000000001
 40
0.0
 40
0.0
 40
0.0
 40
0.0
 40
0.3435149368843839
 40
0.3435149368843839
 40
0.3435149368843839
 40
0.7569946177101712
 40
0.7569946177101712
 40
0.7569946177101712
 40
1.0
 40
1.0
 40
1.0
 40
1.0
 10
-2.000000000000014
 20
23.56249999999997
 30
0.0
 10
-2.000036879631406
 20
23.30249636931212
 30
0.0
 10
-1.996834167074752
 20
23.0752940212619
 30
0.0
 10
-1.998676128321907
 20
22.84408179462264
 30
0.0
 10
-2.000893247482649
 20
22.56577786251154
 30
0.0
 10
-2.001072402909165
 20
22.27139780307911
 30
0.0
 10
-2.001124325805046
 20
21.85792704000355
 30
0.0
 10
-2.00115484131463
 20
21.6149268987483
 30
0.0
 10
-2.000250547667963
 20
21.35822722195017
 30
0.0
 10
-1.999999999992559
 20
21.00000000165235
 30
0.0
  0
SPLINE
  5
7F9C
330
7F98
100
AcDbEntity
  8
0
100
AcDbSpline
210
0.0
220
0.0
230
1.0
 70
     8
 71
     3
 72
    14
 73
    10
 74
     0
 42
0.000000001
 43
0.0000000001
 40
-0.4813026533005014
 40
-0.4813026533005014
 40
-0.4813026533005014
 40
-0.4813026533005014
 40
-0.3760960080974989
 40
-0.3760960080974989
 40
-0.3760960080974989
 40
-0.0765284972657522
 40
-0.0765284972657522
 40
-0.0765284972657522
 40
0.0
 40
0.0
 40
0.0
 40
0.0
 10
-0.9454120927543824
 20
22.73176011522139
 30
0.0
 10
-0.840829788001778
 20
22.76867618608083
 30
0.0
 10
-0.7371129357553608
 20
22.80054090483204
 30
0.0
 10
-0.6388614064340238
 20
22.83423666321329
 30
0.0
 10
-0.3590980320063664
 20
22.93018264119196
 30
0.0
 10
-0.1217220476535411
 20
23.04001612968018
 30
0.0
 10
-0.0342615816127144
 20
23.31443386956375
 30
0.0
 10
-0.0119186445642904
 20
23.38453752398891
 30
0.0
 10
-0.0000045452574068
 20
23.46769665104628
 30
0.0
 10
-0.0000000001152107
 20
23.56250000004003
 30
0.0
  0
LINE
  5
7F9D
330
7F98
100
AcDbEntity
  8
0
100
AcDbLine
 10
-2.000000000000013
 20
23.56249999999994
 30
0.0
 11
0.0
 21
23.56249999999994
 31
0.0
  0
SPLINE
  5
7F9E
330
7F98
100
AcDbEntity
  8
0
100
AcDbSpline
210
0.0
220
0.0
230
1.0
 70
     8
 71
     3
 72
    16
 73
    12
 74
     0
 42
0.000000001
 43
0.0000000001
 40
0.0119734590527476
 40
0.0119734590527476
 40
0.0119734590527476
 40
0.0119734590527476
 40
0.0132060105749156
 40
0.0132060105749156
 40
0.0147875486015145
 40
0.0147875486015145
 40
0.0179851231745989
 40
0.0179851231745989
 40
0.0208164923355689
 40
0.0208164923355689
 40
0.0238392903311328
 40
0.0238392903311328
 40
0.0238392903311328
 40
0.0238392903311328
 10
-1.998796572807092
 20
21.07690723725385
 30
0.0
 10
-1.998796572804499
 20
21.07690723737423
 30
0.0
 10
-1.998806859809011
 20
21.07643140309859
 30
0.0
 10
-1.998847228752051
 20
21.07441930800058
 30
0.0
 10
-1.998882256899605
 20
21.07260732531607
 30
0.0
 10
-1.999004373873925
 20
21.06565815125254
 30
0.0
 10
-1.999108337847492
 20
21.05891402480379
 30
0.0
 10
-1.99928196777004
 20
21.04429668585176
 30
0.0
 10
-1.999357294646007
 20
21.03644011285846
 30
0.0
 10
-1.999480931971706
 20
21.01925573222207
 30
0.0
 10
-1.999528424413698
 20
21.00972875640662
 30
0.0
 10
-1.999557272916896
 20
20.99999849441625
 30
0.0
  0
SPLINE
  5
7F9F
330
7F98
100
AcDbEntity
  8
0
100
AcDbSpline
210
0.0
220
0.0
230
1.0
 70
     8
 71
     3
 72
    10
 73
     6
 74
     0
 42
0.000000001
 43
0.0000000001
 40
0.0087021369199361
 40
0.0087021369199361
 40
0.0087021369199361
 40
0.0087021369199361
 40
0.0090037601850191
 40
0.0090037601850191
 40
0.0116230169573115
 40
0.0116230169573115
 40
0.0116230169573115
 40
0.0116230169573115
 10
-1.999295499749852
 20
21.0335469243254
 30
0.0
 10
-1.999295499750035
 20
21.03354692431802
 30
0.0
 10
-1.999295947093534
 20
21.03352894117829
 30
0.0
 10
-1.999304557967561
 20
21.03318120920296
 30
0.0
 10
-1.999347677322067
 20
21.03145433548815
 30
0.0
 10
-1.999414228066303
 20
21.02852502901246
 30
0.0
  0
SPLINE
  5
7FA0
330
7F98
100
AcDbEntity
  8
0
100
AcDbSpline
210
0.0
220
0.0
230
1.0
 70
     8
 71
     3
 72
    28
 73
    24
 74
     0
 42
0.000000001
 43
0.0000000001
 40
0.0
 40
0.0
 40
0.0
 40
0.0
 40
0.0650016965071621
 40
0.0650016965071621
 40
0.1023228294587196
 40
0.1023228294587196
 40
0.1414747326695922
 40
0.1414747326695922
 40
0.1748987385437866
 40
0.1748987385437866
 40
0.216923999093289
 40
0.216923999093289
 40
0.2285779847211913
 40
0.2285779847211913
 40
0.2316609564740244
 40
0.2316609564740244
 40
0.2332824405344295
 40
0.2332824405344295
 40
0.2349101251781001
 40
0.2349101251781001
 40
0.2381878335645835
 40
0.2381878335645835
 40
0.2398272656815271
 40
0.2398272656815271
 40
0.2398272656815271
 40
0.2398272656815271
 10
-0.9420912521257383
 20
22.7325971296392
 30
0.0
 10
-1.093841721526389
 20
22.67924926777178
 30
0.0
 10
-1.242353898733632
 20
22.60988799342422
 30
0.0
 10
-1.466451771010969
 20
22.44171617371382
 30
0.0
 10
-1.547407943201932
 20
22.36594146110618
 30
0.0
 10
-1.695446554659329
 20
22.18241413825692
 30
0.0
 10
-1.763061289548499
 20
22.07040741116706
 30
0.0
 10
-1.860492149632261
 20
21.85077461310079
 30
0.0
 10
-1.895809632775275
 20
21.74321521029467
 30
0.0
 10
-1.955911122104818
 20
21.49956902554104
 30
0.0
 10
-1.976606287619942
 20
21.36174326038423
 30
0.0
 10
-1.991714435016332
 20
21.18425647527858
 30
0.0
 10
-1.99430485325667
 20
21.14540325143845
 30
0.0
 10
-1.996731630421098
 20
21.09701129923237
 30
0.0
 10
-1.997194385968209
 20
21.08687585469663
 30
0.0
 10
-1.997809801448203
 20
21.07209790474447
 30
0.0
 10
-1.998006434209194
 20
21.0671067010254
 30
0.0
 10
-1.998355889826717
 20
21.05779769262392
 30
0.0
 10
-1.99850983662191
 20
21.05345153495408
 30
0.0
 10
-1.998902086468796
 20
21.04191342961045
 30
0.0
 10
-1.999078183317132
 20
21.03610937896043
 30
0.0
 10
-1.999308026766743
 20
21.02813339136487
 30
0.0
 10
-1.999381849971025
 20
21.02547250048251
 30
0.0
 10
-1.999452958575267
 20
21.0228029371355
 30
0.0
  0
LINE
  5
7FA1
330
7F98
100
AcDbEntity
  8
0
100
AcDbLine
 10
-2.000000000000003
 20
-2.0
 30
0.0
 11
-86.0
 21
-2.0
 31
0.0
  0
LINE
  5
7FA2
330
7F98
100
AcDbEntity
  8
0
100
AcDbLine
 10
-2.000000000000011
 20
2.000000000000003
 30
0.0
 11
-2.000000000000011
 21
21.0
 31
0.0
  0
LINE
  5
7FA3
330
7F98
100
AcDbEntity
  8
0
100
AcDbLine
 10
-2.000000000000011
 20
2.000000000000004
 30
0.0
 11
-2.000000000000003
 21
-1.999999999999999
 31
0.0
  0
LINE
  5
7FA4
330
7F98
100
AcDbEntity
  8
0
100
AcDbLine
 10
-86.0
 20
-2.0
 30
0.0
 11
-86.0
 21
2.0
 31
0.0
  0
LINE
  5
7FA5
330
7F98
100
AcDbEntity
  8
0
100
AcDbLine
 10
0.0
 20
53.99999999999997
 30
0.0
 11
0.0
 21
23.56249999999994
 31
0.0
  0
LINE
  5
7FA6
330
7F98
100
AcDbEntity
  8
0
100
AcDbLine
 10
-2.000000000000001
 20
53.99999999999997
 30
0.0
 11
0.0
 21
53.99999999999997
 31
0.0
  0
LINE
  5
7FA7
330
7F98
100
AcDbEntity
  8
0
100
AcDbLine
 10
-2.000000000000013
 20
23.56249999999994
 30
0.0
 11
-2.000000000000001
 21
53.99999999999997
 31
0.0
  0
LINE
  5
7FA8
330
7F98
100
AcDbEntity
  8
0
100
AcDbLine
 10
0.0
 20
53.99999999999997
 30
0.0
 11
0.0
 21
151.0
 31
0.0
  0
CIRCLE
  5
7FA9
330
7F98
100
AcDbEntity
  8
0
100
AcDbCircle
 10
-38.50000000000001
 20
135.9999999999999
 30
0.0
 40
2.5
  0
LINE
  5
7FAA
330
7F98
100
AcDbEntity
  8
0
100
AcDbLine
 10
-46.00000000000001
 20
53.99999999999997
 30
0.0
 11
-86.00000000000001
 21
21.0
 31
0.0
  0
LINE
  5
7FAB
330
7F98
100
AcDbEntity
  8
0
100
AcDbLine
 10
-46.0
 20
150.9999999999999
 30
0.0
 11
-46.00000000000001
 21
53.99999999999997
 31
0.0
  0
LINE
  5
7FAC
330
7F98
100
AcDbEntity
  8
0
100
AcDbLine
 10
-86.00000000000001
 20
21.0
 30
0.0
 11
-86.0
 21
1.999999999999999
 31
0.0
  0
LINE
  5
7FAD
330
7F98
100
AcDbEntity
  8
0
100
AcDbLine
 10
-4.000000000000003
 20
151.0
 30
0.0
 11
-46.0
 21
150.9999999999999
 31
0.0
  0
LINE
  5
7FAE
330
7F98
100
AcDbEntity
  8
0
100
AcDbLine
 10
-2.000000000000007
 20
151.0
 30
0.0
 11
-4.000000000000003
 21
151.0
 31
0.0
  0
LINE
  5
7FAF
330
7F98
100
AcDbEntity
  8
0
100
AcDbLine
 10
0.0
 20
151.0
 30
0.0
 11
-2.00000000000001
 21
151.0
 31
0.0
  0
LINE
  5
7FB0
330
7F98
100
AcDbEntity
  8
0
100
AcDbLine
 10
-2.000000000000001
 20
53.99999999999997
 30
0.0
 11
-2.00000000000001
 21
151.0
 31
0.0
  0
CIRCLE
  5
7FB1
330
7F98
100
AcDbEntity
  8
0
100
AcDbCircle
 10
-38.50000000000001
 20
35.99999999999998
 30
0.0
 40
2.5
  0
CIRCLE
  5
7FB2
330
7F98
100
AcDbEntity
  8
0
100
AcDbCircle
 10
-38.50000000000001
 20
55.99999999999997
 30
0.0
 40
2.5
  0
CIRCLE
  5
7FB3
330
7F98
100
AcDbEntity
  8
0
100
AcDbCircle
 10
-38.50000000000001
 20
75.99999999999997
 30
0.0
 40
2.5
  0
CIRCLE
  5
7FB4
330
7F98
100
AcDbEntity
  8
0
100
AcDbCircle
 10
-38.50000000000001
 20
95.99999999999997
 30
0.0
 40
2.5
  0
CIRCLE
  5
7FB5
330
7F98
100
AcDbEntity
  8
0
100
AcDbCircle
 10
-38.50000000000001
 20
115.9999999999999
 30
0.0
 40
2.5
  0
ENDBLK
  5
7F9A
330
7F98
100
AcDbEntity
  8
0
100
AcDbBlockEnd
  0
BLOCK
  5
7FB7
330
7FB6
100
AcDbEntity
  8
0
100
AcDbBlockBegin
  2
SAE340_38_2-Top
 70
     0
 10
0.0
 20
0.0
 30
0.0
  3
SAE340_38_2-Top
  1

  0
LINE
  5
7FB9
330
7FB6
100
AcDbEntity
  8
0
100
AcDbLine
 10
19.00000000000001
 20
-2.000000000000007
 30
0.0
 11
19.00000000000001
 21
-2.069004766166585
 31
0.0
  0
SPLINE
  5
7FBA
330
7FB6
100
AcDbEntity
  8
0
100
AcDbSpline
210
0.0
220
0.0
230
1.0
 70
     8
 71
     3
 72
    11
 73
     7
 74
     0
 42
0.000000001
 43
0.0000000001
 40
-1.0
 40
-1.0
 40
-1.0
 40
-1.0
 40
-0.7994286890726884
 40
-0.7994286890726884
 40
-0.7994286890726884
 40
-0.6533573777220627
 40
-0.6533573777220627
 40
-0.6533573777220627
 40
-0.6533573777220627
 10
19.0
 20
-2.000000000000008
 30
0.0
 10
18.99999961270332
 20
-1.999093543231017
 30
0.0
 10
19.12633150600683
 20
-1.919863896633887
 30
0.0
 10
19.33607694563731
 20
-1.790687786202019
 30
0.0
 10
19.48882955654157
 20
-1.696611899881494
 30
0.0
 10
19.68837056420593
 20
-1.577391377851084
 30
0.0
 10
19.91982716790674
 20
-1.445337717163035
 30
0.0
  0
SPLINE
  5
7FBB
330
7FB6
100
AcDbEntity
  8
0
100
AcDbSpline
210
0.0
220
0.0
230
1.0
 70
     8
 71
     3
 72
    24
 73
    20
 74
     0
 42
0.000000001
 43
0.0000000001
 40
0.0
 40
0.0
 40
0.0
 40
0.0
 40
0.0070452398513962
 40
0.0070452398513962
 40
0.0166405949136592
 40
0.0166405949136592
 40
0.0367140942342302
 40
0.0367140942342302
 40
0.0488284899436045
 40
0.0488284899436045
 40
0.0619943402174703
 40
0.0619943402174703
 40
0.0706188779597888
 40
0.0706188779597888
 40
0.0776906910835125
 40
0.0776906910835125
 40
0.0832065316538889
 40
0.0832065316538889
 40
0.0851314111854671
 40
0.0851314111854671
 40
0.0851314111854671
 40
0.0851314111854671
 10
23.56202985673456
 20
-2.000020061973681
 30
0.0
 10
23.54510572274355
 20
-2.000020928437346
 30
0.0
 10
23.52555210341655
 20
-2.000028134291587
 30
0.0
 10
23.47775545401503
 20
-2.000061132070805
 30
0.0
 10
23.4484196290789
 20
-2.000093689688014
 30
0.0
 10
23.35657224070601
 20
-2.000268440249715
 30
0.0
 10
23.29198494494846
 20
-2.000513808506939
 30
0.0
 10
23.19633422836144
 20
-2.000879055386747
 30
0.0
 10
23.16273081700289
 20
-2.000996414973332
 30
0.0
 10
23.0918211229438
 20
-2.001409895073793
 30
0.0
 10
23.05225815310858
 20
-2.001735751882126
 30
0.0
 10
22.98348581637457
 20
-2.002882807510269
 30
0.0
 10
22.95529088113305
 20
-2.003502366167825
 30
0.0
 10
22.90345404910798
 20
-2.005128901294871
 30
0.0
 10
22.87967447351964
 20
-2.006056558893401
 30
0.0
 10
22.83787606749262
 20
-2.008135314674581
 30
0.0
 10
22.81951337891737
 20
-2.009206873101099
 30
0.0
 10
22.79591310628084
 20
-2.010819410468684
 30
0.0
 10
22.78986947328292
 20
-2.011255025617836
 30
0.0
 10
22.78400446671301
 20
-2.011698438791872
 30
0.0
  0
SPLINE
  5
7FBC
330
7FB6
100
AcDbEntity
  8
0
100
AcDbSpline
210
0.0
220
0.0
230
1.0
 70
     8
 71
     3
 72
    20
 73
    16
 74
     0
 42
0.000000001
 43
0.0000000001
 40
0.0641171253413648
 40
0.0641171253413648
 40
0.0641171253413648
 40
0.0641171253413648
 40
0.0663363601003917
 40
0.0663363601003917
 40
0.0719856502085798
 40
0.0719856502085798
 40
0.0726843559630691
 40
0.0726843559630691
 40
0.0728640777360009
 40
0.0728640777360009
 40
0.0730236274645631
 40
0.0730236274645631
 40
0.0731531314076491
 40
0.0731531314076491
 40
0.0733711613094946
 40
0.0733711613094946
 40
0.0733711613094946
 40
0.0733711613094946
 10
21.00192057162123
 20
-3.912392842052322
 30
0.0
 10
21.00176078136871
 20
-3.91749482641563
 30
0.0
 10
21.00160446553308
 20
-3.922755101524321
 30
0.0
 10
21.00107505921869
 20
-3.941895300889934
 30
0.0
 10
21.00073812999047
 20
-3.95612201589379
 30
0.0
 10
21.00038593417118
 20
-3.975345813514668
 30
0.0
 10
21.00034640090009
 20
-3.977574049491937
 30
0.0
 10
21.00029679848498
 20
-3.980480325673894
 30
0.0
 10
21.00028660315555
 20
-3.981083560942166
 30
0.0
 10
21.00026771497294
 20
-3.98221229639883
 30
0.0
 10
21.00025889702156
 20
-3.982744048509702
 30
0.0
 10
21.00024368055781
 20
-3.983669438169767
 30
0.0
 10
21.00023707559736
 20
-3.984074069281672
 30
0.0
 10
21.00022051910905
 20
-3.985094654431181
 30
0.0
 10
21.00021119894652
 20
-3.985676230789437
 30
0.0
 10
21.00020329588431
 20
-3.986173058261445
 30
0.0
  0
SPLINE
  5
7FBD
330
7FB6
100
AcDbEntity
  8
0
100
AcDbSpline
210
0.0
220
0.0
230
1.0
 70
     8
 71
     3
 72
    14
 73
    10
 74
     0
 42
0.000000001
 43
0.0000000001
 40
0.1124643909442295
 40
0.1124643909442295
 40
0.1124643909442295
 40
0.1124643909442295
 40
0.1134183602126943
 40
0.1134183602126943
 40
0.1156434667555999
 40
0.1156434667555999
 40
0.1181749363451062
 40
0.1181749363451062
 40
0.1203710289635112
 40
0.1203710289635112
 40
0.1203710289635112
 40
0.1203710289635112
 10
21.00046661805434
 20
-3.966371371361392
 30
0.0
 10
21.00046661803897
 20
-3.966371372310946
 30
0.0
 10
21.00046289798973
 20
-3.966600208080961
 30
0.0
 10
21.00043934061007
 20
-3.968085956014735
 30
0.0
 10
21.00040387837529
 20
-3.970353274750109
 30
0.0
 10
21.00031324379982
 20
-3.976825609142568
 30
0.0
 10
21.00025637196661
 20
-3.981257779274826
 30
0.0
 10
21.00015739337187
 20
-3.990423559883101
 30
0.0
 10
21.00011373637146
 20
-3.995073084969558
 30
0.0
 10
21.00007561069734
 20
-4.00000054641299
 30
0.0
  0
LINE
  5
7FBE
330
7FB6
100
AcDbEntity
  8
0
100
AcDbLine
 10
21.00002880813509
 20
-3.989264082881564
 30
0.0
 11
21.00002895001303
 21
-3.989305408411202
 31
0.0
  0
SPLINE
  5
7FBF
330
7FB6
100
AcDbEntity
  8
0
100
AcDbSpline
210
0.0
220
0.0
230
1.0
 70
     8
 71
     3
 72
    10
 73
     6
 74
     0
 42
0.000000001
 43
0.0000000001
 40
0.0106696534374104
 40
0.0106696534374104
 40
0.0106696534374104
 40
0.0106696534374104
 40
0.0141856588366456
 40
0.0141856588366456
 40
0.0146500581938345
 40
0.0146500581938345
 40
0.0146500581938345
 40
0.0146500581938345
 10
20.99998998734465
 20
-3.998412118514233
 30
0.0
 10
20.99998998734438
 20
-3.998412118473336
 30
0.0
 10
20.99999700909617
 20
-3.999501506004265
 30
0.0
 10
21.00000245239853
 20
-4.000333707200057
 30
0.0
 10
21.00000285308399
 20
-4.000394832110752
 30
0.0
 10
21.0000028530636
 20
-4.000394828999271
 30
0.0
  0
SPLINE
  5
7FC0
330
7FB6
100
AcDbEntity
  8
0
100
AcDbSpline
210
0.0
220
0.0
230
1.0
 70
     8
 71
     3
 72
    34
 73
    30
 74
     0
 42
0.000000001
 43
0.0000000001
 40
0.0101706382761837
 40
0.0101706382761837
 40
0.0101706382761837
 40
0.0101706382761837
 40
0.0113032242377816
 40
0.0113032242377816
 40
0.0117452732287692
 40
0.0117452732287692
 40
0.011967197630355
 40
0.011967197630355
 40
0.0121912829168317
 40
0.0121912829168317
 40
0.0124134704433732
 40
0.0124134704433732
 40
0.0133139282355677
 40
0.0133139282355677
 40
0.0702379177844418
 40
0.0702379177844418
 40
0.1264917171584749
 40
0.1264917171584749
 40
0.175165903519981
 40
0.175165903519981
 40
0.1996211747079734
 40
0.1996211747079734
 40
0.2119712476969742
 40
0.2119712476969742
 40
0.2186278230159619
 40
0.2186278230159619
 40
0.2221807166598986
 40
0.2221807166598986
 40
0.2258666338167025
 40
0.2258666338167025
 40
0.2258666338167025
 40
0.2258666338167025
 10
18.99996698296285
 20
-3.998219693836248
 30
0.0
 10
18.99996230387372
 20
-3.997950181288291
 30
0.0
 10
18.99995706363279
 20
-3.99764866386952
 30
0.0
 10
18.99993617333811
 20
-3.996443927136091
 30
0.0
 10
18.99992863163993
 20
-3.996008973463341
 30
0.0
 10
18.99990995847918
 20
-3.994930142613283
 30
0.0
 10
18.99990223971887
 20
-3.994483970885636
 30
0.0
 10
18.99988342136851
 20
-3.993394860419783
 30
0.0
 10
18.99987196142646
 20
-3.992730981027954
 30
0.0
 10
18.99984791589809
 20
-3.991335842115425
 30
0.0
 10
18.9998351214546
 20
-3.99059249007647
 30
0.0
 10
18.99977100194529
 20
-3.98686143111641
 30
0.0
 10
18.99971951687913
 20
-3.983847034802752
 30
0.0
 10
18.99655721335662
 20
-3.797606402858425
 30
0.0
 10
18.99490021524562
 20
-3.631656903796639
 30
0.0
 10
18.99335586136551
 20
-3.291344053918088
 30
0.0
 10
18.99342838996039
 20
-3.120450256571101
 30
0.0
 10
18.99449056899659
 20
-2.794093154163559
 30
0.0
 10
18.99542236053282
 20
-2.639749654998641
 30
0.0
 10
18.99709804616459
 20
-2.414735633363683
 30
0.0
 10
18.99772907476911
 20
-2.340295147358739
 30
0.0
 10
18.99882206399459
 20
-2.228366467657513
 30
0.0
 10
18.99918481819532
 20
-2.190556397888336
 30
0.0
 10
18.9994869398766
 20
-2.138734370518179
 30
0.0
 10
18.99954739744211
 20
-2.121671532451604
 30
0.0
 10
18.99958626688353
 20
-2.098890284486261
 30
0.0
 10
18.99959049249703
 20
-2.091538060455368
 30
0.0
 10
18.99958778636745
 20
-2.078516652389617
 30
0.0
 10
18.99958019964635
 20
-2.072835312175645
 30
0.0
 10
18.99957228829789
 20
-2.069004766166585
 30
0.0
  0
SPLINE
  5
7FC1
330
7FB6
100
AcDbEntity
  8
0
100
AcDbSpline
210
0.0
220
0.0
230
1.0
 70
     8
 71
     3
 72
    12
 73
     8
 74
     0
 42
0.000000001
 43
0.0000000001
 40
0.0
 40
0.0
 40
0.0
 40
0.0
 40
0.0073837082042894
 40
0.0073837082042894
 40
0.0094968776860828
 40
0.0094968776860828
 40
0.0106851798928694
 40
0.0106851798928694
 40
0.0106851798928694
 40
0.0106851798928694
 10
18.99996052260955
 20
-3.999985103458833
 30
0.0
 10
19.00000146855735
 20
-3.988676024697391
 30
0.0
 10
19.00005745707825
 20
-3.976740013360934
 30
0.0
 10
19.00011516119722
 20
-3.966761709165138
 30
0.0
 10
19.00012635319177
 20
-3.964941242445305
 30
0.0
 10
19.0001363587902
 20
-3.963322951713479
 30
0.0
 10
19.00013843235787
 20
-3.962989226438874
 30
0.0
 10
19.0001384322758
 20
-3.962989239763956
 30
0.0
  0
LINE
  5
7FC2
330
7FB6
100
AcDbEntity
  8
0
100
AcDbLine
 10
-19.00000000000001
 20
-2.000000000000007
 30
0.0
 11
-19.00000000000001
 21
-2.069004766166867
 31
0.0
  0
SPLINE
  5
7FC3
330
7FB6
100
AcDbEntity
  8
0
100
AcDbSpline
210
0.0
220
0.0
230
1.0
 70
     8
 71
     3
 72
    11
 73
     7
 74
     0
 42
0.000000001
 43
0.0000000001
 40
-1.0
 40
-1.0
 40
-1.0
 40
-1.0
 40
-0.7994286890726884
 40
-0.7994286890726884
 40
-0.7994286890726884
 40
-0.6533573777220627
 40
-0.6533573777220627
 40
-0.6533573777220627
 40
-0.6533573777220627
 10
-19.0
 20
-2.000000000000008
 30
0.0
 10
-18.99999961270332
 20
-1.999093543231017
 30
0.0
 10
-19.12633150600683
 20
-1.919863896633887
 30
0.0
 10
-19.33607694563731
 20
-1.790687786202019
 30
0.0
 10
-19.48882955654157
 20
-1.696611899881494
 30
0.0
 10
-19.68837056420593
 20
-1.577391377851084
 30
0.0
 10
-19.91982716790674
 20
-1.445337717163035
 30
0.0
  0
SPLINE
  5
7FC4
330
7FB6
100
AcDbEntity
  8
0
100
AcDbSpline
210
0.0
220
0.0
230
1.0
 70
     8
 71
     3
 72
    44
 73
    40
 74
     0
 42
0.000000001
 43
0.0000000001
 40
0.0
 40
0.0
 40
0.0
 40
0.0
 40
0.0038040597928225
 40
0.0038040597928225
 40
0.0084789254027578
 40
0.0084789254027578
 40
0.0158054477974431
 40
0.0158054477974431
 40
0.026000033922722
 40
0.026000033922722
 40
0.0495206342127129
 40
0.0495206342127129
 40
0.1201103978449704
 40
0.1201103978449704
 40
0.1773337563868359
 40
0.1773337563868359
 40
0.1997077561853025
 40
0.1997077561853025
 40
0.2080969742761578
 40
0.2080969742761578
 40
0.2112430418302213
 40
0.2112430418302213
 40
0.2124230719403334
 40
0.2124230719403334
 40
0.2133106390256644
 40
0.2133106390256644
 40
0.2136319406615913
 40
0.2136319406615913
 40
0.2138073510243108
 40
0.2138073510243108
 40
0.2140085742546714
 40
0.2140085742546714
 40
0.21419844005839
 40
0.21419844005839
 40
0.2144559944136225
 40
0.2144559944136225
 40
0.2149188672370459
 40
0.2149188672370459
 40
0.2157308980265535
 40
0.2157308980265535
 40
0.2157308980265535
 40
0.2157308980265535
 10
-18.99957228829789
 20
-2.069004766166867
 30
0.0
 10
-18.99958045322437
 20
-2.072958090519446
 30
0.0
 10
-18.99958825487938
 20
-2.078881092791161
 30
0.0
 10
-18.99959053786119
 20
-2.094285445070338
 30
0.0
 10
-18.99958182785682
 20
-2.10440291170309
 30
0.0
 10
-18.99951287324453
 20
-2.132562809524169
 30
0.0
 10
-18.99942216624797
 20
-2.152170789464078
 30
0.0
 10
-18.99908018252585
 20
-2.201629641626961
 30
0.0
 10
-18.99878019266228
 20
-2.232656804265225
 30
0.0
 10
-18.99777927585665
 20
-2.33514902205464
 30
0.0
 10
-18.99716324842446
 20
-2.406783095842802
 30
0.0
 10
-18.99498744670723
 20
-2.695965521729744
 30
0.0
 10
-18.99378539075253
 20
-2.921302546390731
 30
0.0
 10
-18.99344334744236
 20
-3.312943746959597
 30
0.0
 10
-18.99387955180902
 20
-3.483506423601243
 30
0.0
 10
-18.99604688404726
 20
-3.724130445222753
 30
0.0
 10
-18.99683251753845
 20
-3.792246813111255
 30
0.0
 10
-18.99816860852671
 20
-3.886855423073996
 30
0.0
 10
-18.99855832220579
 20
-3.912722668438169
 30
0.0
 10
-18.99913043065641
 20
-3.948497459117959
 30
0.0
 10
-18.99929001996452
 20
-3.958267216703346
 30
0.0
 10
-18.99951674138138
 20
-3.97185776673852
 30
0.0
 10
-18.99957935921263
 20
-3.975582713095875
 30
0.0
 10
-18.99969160776829
 20
-3.98220779102198
 30
0.0
 10
-18.99974104936436
 20
-3.985109283775386
 30
0.0
 10
-18.99981001162263
 20
-3.989131787572217
 30
0.0
 10
-18.99982882169843
 20
-3.990226542758799
 30
0.0
 10
-18.99985653018005
 20
-3.99183583834171
 30
0.0
 10
-18.99986615762244
 20
-3.992394322854496
 30
0.0
 10
-18.99988497915638
 20
-3.993485104051879
 30
0.0
 10
-18.99989406745107
 20
-3.994011120614477
 30
0.0
 10
-18.99990864670906
 20
-3.994854342701827
 30
0.0
 10
-18.9999145338386
 20
-3.995194527001395
 30
0.0
 10
-18.99992618855963
 20
-3.995867710437364
 30
0.0
 10
-18.99993132104826
 20
-3.996163910826673
 30
0.0
 10
-18.99994324642332
 20
-3.996851941060403
 30
0.0
 10
-18.99994826913204
 20
-3.997141443748649
 30
0.0
 10
-18.99995948080609
 20
-3.997787609277449
 30
0.0
 10
-18.99996362446598
 20
-3.998026246559502
 30
0.0
 10
-18.99996698296292
 20
-3.99821969384066
 30
0.0
  0
SPLINE
  5
7FC5
330
7FB6
100
AcDbEntity
  8
0
100
AcDbSpline
210
0.0
220
0.0
230
1.0
 70
     8
 71
     3
 72
    14
 73
    10
 74
     0
 42
0.000000001
 43
0.0000000001
 40
0.0078284967075588
 40
0.0078284967075588
 40
0.0078284967075588
 40
0.0078284967075588
 40
0.008175470264419
 40
0.008175470264419
 40
0.0102323022402205
 40
0.0102323022402205
 40
0.0133243206038005
 40
0.0133243206038005
 40
0.0185174889419856
 40
0.0185174889419856
 40
0.0185174889419856
 40
0.0185174889419856
 10
-19.00013843227584
 20
-3.962989239760818
 30
0.0
 10
-19.00013843227583
 20
-3.962989239761436
 30
0.0
 10
-19.00013825702474
 20
-3.963017667612828
 30
0.0
 10
-19.00013591754627
 20
-3.963395595997567
 30
0.0
 10
-19.00012809275731
 20
-3.964642654726844
 30
0.0
 10
-19.00010165207885
 20
-3.969046452317845
 30
0.0
 10
-19.00007995556382
 20
-3.972835758809294
 30
0.0
 10
-19.00002328167438
 20
-3.983975793972902
 30
0.0
 10
-18.99998932103899
 20
-3.992031112302734
 30
0.0
 10
-18.99996052260955
 20
-3.999985103458834
 30
0.0
  0
LINE
  5
7FC6
330
7FB6
100
AcDbEntity
  8
0
100
AcDbLine
 10
-21.00002899803214
 20
-3.989291181849995
 30
0.0
 11
-21.00002885636052
 21
-3.989249798098517
 31
0.0
  0
SPLINE
  5
7FC7
330
7FB6
100
AcDbEntity
  8
0
100
AcDbSpline
210
0.0
220
0.0
230
1.0
 70
     8
 71
     3
 72
    14
 73
    10
 74
     0
 42
0.000000001
 43
0.0000000001
 40
0.0
 40
0.0
 40
0.0
 40
0.0
 40
0.003243485149913
 40
0.003243485149913
 40
0.0060138666872751
 40
0.0060138666872751
 40
0.0075916601071538
 40
0.0075916601071538
 40
0.0079057575379128
 40
0.0079057575379128
 40
0.0079057575379128
 40
0.0079057575379128
 10
-21.00007561045137
 20
-4.000000578201335
 30
0.0
 10
-21.00013191954507
 20
-3.992723038061011
 30
0.0
 10
-21.00020122216308
 20
-3.986003523728552
 30
0.0
 10
-21.00032918551759
 20
-3.975520338807424
 30
0.0
 10
-21.0003884364375
 20
-3.971430126543183
 30
0.0
 10
-21.00044735455597
 20
-3.967564492375666
 30
0.0
 10
-21.0004615109289
 20
-3.96668824165239
 30
0.0
 10
-21.0004662240296
 20
-3.966395704918932
 30
0.0
 10
-21.00046661805412
 20
-3.966371371374622
 30
0.0
 10
-21.00046661805433
 20
-3.966371371361463
 30
0.0
  0
SPLINE
  5
7FC8
330
7FB6
100
AcDbEntity
  8
0
100
AcDbSpline
210
0.0
220
0.0
230
1.0
 70
     8
 71
     3
 72
    24
 73
    20
 74
     0
 42
0.000000001
 43
0.0000000001
 40
0.0470124691275948
 40
0.0470124691275948
 40
0.0470124691275948
 40
0.0470124691275948
 40
0.0470594910741661
 40
0.0470594910741661
 40
0.0472222719535898
 40
0.0472222719535898
 40
0.0473852804845008
 40
0.0473852804845008
 40
0.0477156493111596
 40
0.0477156493111596
 40
0.048040489619978
 40
0.048040489619978
 40
0.0485975788630334
 40
0.0485975788630334
 40
0.0497869681895806
 40
0.0497869681895806
 40
0.0528454694608224
 40
0.0528454694608224
 40
0.056281374024686
 40
0.056281374024686
 40
0.056281374024686
 40
0.056281374024686
 10
-21.00020328819328
 20
-3.986173504455534
 30
0.0
 10
-21.00020498472123
 20
-3.986066851910803
 30
0.0
 10
-21.00020673790905
 20
-3.985956865985443
 30
0.0
 10
-21.00021482568307
 20
-3.985450354329658
 30
0.0
 10
-21.00022190426255
 20
-3.985009744076098
 30
0.0
 10
-21.00023728143258
 20
-3.984060981236488
 30
0.0
 10
-21.00024569673601
 20
-3.983545740648112
 30
0.0
 10
-21.00027200254245
 20
-3.981950179063771
 30
0.0
 10
-21.00029116773702
 20
-3.980808388479701
 30
0.0
 10
-21.00032816851424
 20
-3.978644437701583
 30
0.0
 10
-21.00034655090083
 20
-3.977588309493674
 30
0.0
 10
-21.00039589251937
 20
-3.974799053160818
 30
0.0
 10
-21.00042683740507
 20
-3.973098992294057
 30
0.0
 10
-21.00052365244711
 20
-3.967911213341503
 30
0.0
 10
-21.00058996965226
 20
-3.964546870596812
 30
0.0
 10
-21.00083206575711
 20
-3.952823316128499
 30
0.0
 10
-21.00101736860813
 20
-3.944864387352223
 30
0.0
 10
-21.0014357347292
 20
-3.928560242649727
 30
0.0
 10
-21.00167336156791
 20
-3.920275293576334
 30
0.0
 10
-21.00192055535889
 20
-3.912382578994225
 30
0.0
  0
SPLINE
  5
7FC9
330
7FB6
100
AcDbEntity
  8
0
100
AcDbSpline
210
0.0
220
0.0
230
1.0
 70
     8
 71
     3
 72
    22
 73
    18
 74
     0
 42
0.000000001
 43
0.0000000001
 40
0.0478714372356259
 40
0.0478714372356259
 40
0.0478714372356259
 40
0.0478714372356259
 40
0.0509143159360332
 40
0.0509143159360332
 40
0.0563767803300702
 40
0.0563767803300702
 40
0.0645907840598576
 40
0.0645907840598576
 40
0.0763651691550458
 40
0.0763651691550458
 40
0.0912951856660981
 40
0.0912951856660981
 40
0.1030602340123507
 40
0.1030602340123507
 40
0.1261855906325627
 40
0.1261855906325627
 40
0.1329877986825622
 40
0.1329877986825622
 40
0.1329877986825622
 40
0.1329877986825622
 10
-22.78400601955326
 20
-2.011697685531185
 30
0.0
 10
-22.79325004180184
 20
-2.010998808011221
 30
0.0
 10
-22.80294149057731
 20
-2.010321376285709
 30
0.0
 10
-22.83036210265575
 20
-2.008558782983341
 30
0.0
 10
-22.8486144099239
 20
-2.007560852152959
 30
0.0
 10
-22.89412250009818
 20
-2.005440889663106
 30
0.0
 10
-22.92171315939919
 20
-2.004484871869083
 30
0.0
 10
-22.98716908320685
 20
-2.002725717476844
 30
0.0
 10
-23.02499984787595
 20
-2.002137209318703
 30
0.0
 10
-23.10564424689133
 20
-2.001256390125855
 30
0.0
 10
-23.14602486062633
 20
-2.001083596417015
 30
0.0
 10
-23.22219734839116
 20
-2.000776233588323
 30
0.0
 10
-23.25771658496857
 20
-2.000641943211769
 30
0.0
 10
-23.36567727930416
 20
-2.000249312072939
 30
0.0
 10
-23.44121992658335
 20
-2.000084894486208
 30
0.0
 10
-23.52688938518301
 20
-2.000027671331028
 30
0.0
 10
-23.54568953576605
 20
-2.000020898547912
 30
0.0
 10
-23.56202985673468
 20
-2.00002006197368
 30
0.0
  0
LINE
  5
7FCA
330
7FB6
100
AcDbEntity
  8
0
100
AcDbLine
 10
-19.0
 20
-2.000000000000007
 30
0.0
 11
-17.0
 21
-2.000000000000003
 31
0.0
  0
LINE
  5
7FCB
330
7FB6
100
AcDbEntity
  8
0
100
AcDbLine
 10
-18.99999999999999
 20
-86.0
 30
0.0
 11
-16.99999999999998
 21
-86.0
 31
0.0
  0
LINE
  5
7FCC
330
7FB6
100
AcDbEntity
  8
0
100
AcDbLine
 10
17.00000000000001
 20
-2.000000000000003
 30
0.0
 11
-17.00000000000001
 21
-2.000000000000003
 31
0.0
  0
LINE
  5
7FCD
330
7FB6
100
AcDbEntity
  8
0
100
AcDbLine
 10
-16.99999999999998
 20
-86.0
 30
0.0
 11
16.99999999999999
 21
-86.0
 31
0.0
  0
CIRCLE
  5
7FCE
330
7FB6
100
AcDbEntity
  8
0
100
AcDbCircle
 10
0.0
 20
-47.99999999999998
 30
0.0
 40
2.5
  0
CIRCLE
  5
7FCF
330
7FB6
100
AcDbEntity
  8
0
100
AcDbCircle
 10
0.0
 20
-67.99999999999998
 30
0.0
 40
2.5
  0
LINE
  5
7FD0
330
7FB6
100
AcDbEntity
  8
0
100
AcDbLine
 10
19.0
 20
-2.000000000000007
 30
0.0
 11
17.0
 21
-2.000000000000003
 31
0.0
  0
LINE
  5
7FD1
330
7FB6
100
AcDbEntity
  8
0
100
AcDbLine
 10
22.99999999999999
 20
0.0
 30
0.0
 11
60.5
 21
0.0
 31
0.0
  0
ARC
  5
7FD2
330
7FB6
100
AcDbEntity
  8
0
100
AcDbCircle
 10
23.0
 20
-4.000000000000004
 30
0.0
 40
3.999999999999999
100
AcDbArc
 50
90.00000000000012
 51
180.0
  0
LINE
  5
7FD3
330
7FB6
100
AcDbEntity
  8
0
100
AcDbLine
 10
18.99999999999999
 20
-86.00000000000001
 30
0.0
 11
19.0
 21
-46.00000000000001
 31
0.0
  0
LINE
  5
7FD4
330
7FB6
100
AcDbEntity
  8
0
100
AcDbLine
 10
20.99999999999999
 20
-86.00000000000001
 30
0.0
 11
18.99999999999999
 21
-86.00000000000001
 31
0.0
  0
LINE
  5
7FD5
330
7FB6
100
AcDbEntity
  8
0
100
AcDbLine
 10
21.0
 20
-46.00000000000001
 30
0.0
 11
20.99999999999999
 21
-86.00000000000001
 31
0.0
  0
LINE
  5
7FD6
330
7FB6
100
AcDbEntity
  8
0
100
AcDbLine
 10
19.0
 20
-46.0
 30
0.0
 11
21.0
 21
-46.0
 31
0.0
  0
LINE
  5
7FD7
330
7FB6
100
AcDbEntity
  8
0
100
AcDbLine
 10
21.00000000000001
 20
-4.000000000000003
 30
0.0
 11
21.0
 21
-46.0
 31
0.0
  0
LINE
  5
7FD8
330
7FB6
100
AcDbEntity
  8
0
100
AcDbLine
 10
19.0
 20
-46.0
 30
0.0
 11
19.0
 21
-4.000000000000003
 31
0.0
  0
LINE
  5
7FD9
330
7FB6
100
AcDbEntity
  8
0
100
AcDbLine
 10
18.99999999999999
 20
-86.0
 30
0.0
 11
16.99999999999998
 21
-86.0
 31
0.0
  0
ARC
  5
7FDA
330
7FB6
100
AcDbEntity
  8
0
100
AcDbCircle
 10
23.0
 20
-4.000000000000004
 30
0.0
 40
1.999999999999997
100
AcDbArc
 50
90.00000000000026
 51
180.0
  0
LINE
  5
7FDB
330
7FB6
100
AcDbEntity
  8
0
100
AcDbLine
 10
60.5
 20
0.0
 30
0.0
 11
60.5
 21
-2.00000000000001
 31
0.0
  0
LINE
  5
7FDC
330
7FB6
100
AcDbEntity
  8
0
100
AcDbLine
 10
60.5
 20
-2.00000000000001
 30
0.0
 11
22.99999999999999
 21
-2.000000000000006
 31
0.0
  0
LINE
  5
7FDD
330
7FB6
100
AcDbEntity
  8
0
100
AcDbLine
 10
-60.5
 20
-2.00000000000001
 30
0.0
 11
-22.99999999999999
 21
-2.000000000000006
 31
0.0
  0
LINE
  5
7FDE
330
7FB6
100
AcDbEntity
  8
0
100
AcDbLine
 10
-19.0
 20
-46.0
 30
0.0
 11
-19.0
 21
-4.000000000000003
 31
0.0
  0
LINE
  5
7FDF
330
7FB6
100
AcDbEntity
  8
0
100
AcDbLine
 10
-21.00000000000001
 20
-4.000000000000003
 30
0.0
 11
-21.0
 21
-46.0
 31
0.0
  0
LINE
  5
7FE0
330
7FB6
100
AcDbEntity
  8
0
100
AcDbLine
 10
-22.99999999999999
 20
0.0
 30
0.0
 11
-60.5
 21
0.0
 31
0.0
  0
LINE
  5
7FE1
330
7FB6
100
AcDbEntity
  8
0
100
AcDbLine
 10
-60.5
 20
0.0
 30
0.0
 11
-60.5
 21
-2.00000000000001
 31
0.0
  0
ARC
  5
7FE2
330
7FB6
100
AcDbEntity
  8
0
100
AcDbCircle
 10
-23.0
 20
-4.000000000000004
 30
0.0
 40
1.999999999999997
100
AcDbArc
 50
0.0
 51
89.99999999999975
  0
ARC
  5
7FE3
330
7FB6
100
AcDbEntity
  8
0
100
AcDbCircle
 10
-23.0
 20
-4.000000000000004
 30
0.0
 40
3.999999999999999
100
AcDbArc
 50
0.0
 51
89.99999999999987
  0
LINE
  5
7FE4
330
7FB6
100
AcDbEntity
  8
0
100
AcDbLine
 10
-19.0
 20
-46.00000000000001
 30
0.0
 11
-18.99999999999999
 21
-86.00000000000001
 31
0.0
  0
LINE
  5
7FE5
330
7FB6
100
AcDbEntity
  8
0
100
AcDbLine
 10
-20.99999999999999
 20
-86.00000000000001
 30
0.0
 11
-21.0
 21
-46.00000000000001
 31
0.0
  0
LINE
  5
7FE6
330
7FB6
100
AcDbEntity
  8
0
100
AcDbLine
 10
-18.99999999999999
 20
-86.00000000000001
 30
0.0
 11
-20.99999999999999
 21
-86.00000000000001
 31
0.0
  0
LINE
  5
7FE7
330
7FB6
100
AcDbEntity
  8
0
100
AcDbLine
 10
-21.0
 20
-46.0
 30
0.0
 11
-19.0
 21
-46.0
 31
0.0
  0
ENDBLK
  5
7FB8
330
7FB6
100
AcDbEntity
  8
0
100
AcDbBlockEnd
  0
BLOCK
  5
7FE9
330
7FE8
100
AcDbEntity
  8
0
100
AcDbBlockBegin
  2
SAE340_38_2-Bottom
 70
     0
 10
0.0
 20
0.0
 30
0.0
  3
SAE340_38_2-Bottom
  1

  0
SPLINE
  5
7FEB
330
7FE8
100
AcDbEntity
  8
0
100
AcDbSpline
210
0.0
220
0.0
230
1.0
 70
     8
 71
     3
 72
    14
 73
    10
 74
     0
 42
0.000000001
 43
0.0000000001
 40
0.0
 40
0.0
 40
0.0
 40
0.0
 40
0.3435149368843839
 40
0.3435149368843839
 40
0.3435149368843839
 40
0.7569946177101712
 40
0.7569946177101712
 40
0.7569946177101712
 40
1.0
 40
1.0
 40
1.0
 40
1.0
 10
23.60606060606065
 20
2.000000000000014
 30
0.0
 10
23.28490796720452
 20
2.000036879631406
 30
0.0
 10
22.87246555817525
 20
1.996834167074752
 30
0.0
 10
22.47647444984694
 20
1.998676128321907
 30
0.0
 10
21.99983061430814
 20
2.000893247482649
 30
0.0
 10
21.53729794759644
 20
2.001072402909165
 30
0.0
 10
21.26242807110221
 20
2.001124325805046
 30
0.0
 10
21.10088480183191
 20
2.00115484131463
 30
0.0
 10
20.99999576705054
 20
2.000250547667963
 30
0.0
 10
20.99999999948833
 20
1.999999999992559
 30
0.0
  0
LINE
  5
7FEC
330
7FE8
100
AcDbEntity
  8
0
100
AcDbLine
 10
23.00219464735404
 20
2.000000000000013
 30
0.0
 11
23.00619229314707
 21
2.000000000000013
 31
0.0
  0
LINE
  5
7FED
330
7FE8
100
AcDbEntity
  8
0
100
AcDbLine
 10
23.56202985673461
 20
2.000000000000013
 30
0.0
 11
23.60606060606067
 21
2.000000000000013
 31
0.0
  0
ARC
  5
7FEE
330
7FE8
100
AcDbEntity
  8
0
100
AcDbCircle
 10
23.0
 20
4.000000000000004
 30
0.0
 40
1.999999999999992
100
AcDbArc
 50
182.3975805266669
 51
263.7599709144553
  0
ARC
  5
7FEF
330
7FE8
100
AcDbEntity
  8
0
100
AcDbCircle
 10
23.0
 20
4.000000000000004
 30
0.0
 40
3.999999999999996
100
AcDbArc
 50
219.6927749101262
 51
270.0
  0
LINE
  5
7FF0
330
7FE8
100
AcDbEntity
  8
0
100
AcDbLine
 10
23.60606060606066
 20
0.0
 30
0.0
 11
23.0
 21
0.0
 31
0.0
  0
SPLINE
  5
7FF1
330
7FE8
100
AcDbEntity
  8
0
100
AcDbSpline
210
0.0
220
0.0
230
1.0
 70
     8
 71
     3
 72
    17
 73
    13
 74
     0
 42
0.000000001
 43
0.0000000001
 40
-1.0
 40
-1.0
 40
-1.0
 40
-1.0
 40
-0.7994286890726884
 40
-0.7994286890726884
 40
-0.7994286890726884
 40
-0.3760960080974989
 40
-0.3760960080974989
 40
-0.3760960080974989
 40
-0.0765284972657522
 40
-0.0765284972657522
 40
-0.0765284972657522
 40
0.0
 40
0.0
 40
0.0
 40
0.0
 10
19.0
 20
2.000000000000008
 30
0.0
 10
18.99999961270332
 20
1.999093543231017
 30
0.0
 10
19.12633150600683
 20
1.919863896633887
 30
0.0
 10
19.33607694563731
 20
1.790687786202019
 30
0.0
 10
19.77877285698461
 20
1.518044261591024
 30
0.0
 10
20.61445008345503
 20
1.03420794787404
 30
0.0
 10
21.48107962103019
 20
0.6388614064340238
 30
0.0
 10
22.09434210949814
 20
0.3590980320063664
 30
0.0
 10
22.71765761686515
 20
0.1217220476535411
 30
0.0
 10
23.23393420695035
 20
0.0342615816127144
 30
0.0
 10
23.36582391522682
 20
0.0119186445642904
 30
0.0
 10
23.48832026105402
 20
0.0000045452574068
 30
0.0
 10
23.6060606061109
 20
0.0000000001152107
 30
0.0
  0
LINE
  5
7FF2
330
7FE8
100
AcDbEntity
  8
0
100
AcDbLine
 10
23.60606060606065
 20
2.000000000000013
 30
0.0
 11
23.60606060606065
 21
0.0
 31
0.0
  0
SPLINE
  5
7FF3
330
7FE8
100
AcDbEntity
  8
0
100
AcDbSpline
210
0.0
220
0.0
230
1.0
 70
     8
 71
     3
 72
    30
 73
    26
 74
     0
 42
0.000000001
 43
0.0000000001
 40
0.0364728668763143
 40
0.0364728668763143
 40
0.0364728668763143
 40
0.0364728668763143
 40
0.0383798159936539
 40
0.0383798159936539
 40
0.0414118567247088
 40
0.0414118567247088
 40
0.0445182445877395
 40
0.0445182445877395
 40
0.0472747035549641
 40
0.0472747035549641
 40
0.050914315936138
 40
0.050914315936138
 40
0.0563767803301839
 40
0.0563767803301839
 40
0.0645907840600338
 40
0.0645907840600338
 40
0.0763651691552923
 40
0.0763651691552923
 40
0.0912951856663749
 40
0.0912951856663749
 40
0.103060233987473
 40
0.103060233987473
 40
0.1261855905930696
 40
0.1261855905930696
 40
0.1329877986828308
 40
0.1329877986828308
 40
0.1329877986828308
 40
0.1329877986828308
 10
22.72383606961622
 20
2.017146192079577
 30
0.0
 10
22.7238360695649
 20
2.017146192085324
 30
0.0
 10
22.72450836877504
 20
2.017070754858044
 30
0.0
 10
22.72768868687252
 20
2.016725559064474
 30
0.0
 10
22.73087807074244
 20
2.016383757554871
 30
0.0
 10
22.74081665140687
 20
2.015388200707383
 30
0.0
 10
22.74771468895338
 20
2.014725511049076
 30
0.0
 10
22.76255940647665
 20
2.013408092464425
 30
0.0
 10
22.77042163539031
 20
2.012749694936346
 30
0.0
 10
22.78945151442253
 20
2.011267017844804
 30
0.0
 10
22.80101766427369
 20
2.010445039584976
 30
0.0
 10
22.83036210265676
 20
2.008558782983281
 30
0.0
 10
22.84861440992496
 20
2.007560852152902
 30
0.0
 10
22.89412250009947
 20
2.005440889663052
 30
0.0
 10
22.9217131594007
 20
2.004484871869035
 30
0.0
 10
22.98716908320873
 20
2.002725717476808
 30
0.0
 10
23.02499984787801
 20
2.002137209318674
 30
0.0
 10
23.1056442468935
 20
2.001256390125841
 30
0.0
 10
23.14602486062848
 20
2.001083596417005
 30
0.0
 10
23.22219734832176
 20
2.000776233588604
 30
0.0
 10
23.25771658481821
 20
2.000641943212371
 30
0.0
 10
23.36567727902036
 20
2.000249312073863
 30
0.0
 10
23.44121992624456
 20
2.000084894486678
 30
0.0
 10
23.52688938496456
 20
2.000027671331104
 30
0.0
 10
23.54568953567046
 20
2.000020898547918
 30
0.0
 10
23.56202985673461
 20
2.000020061973681
 30
0.0
  0
SPLINE
  5
7FF4
330
7FE8
100
AcDbEntity
  8
0
100
AcDbSpline
210
0.0
220
0.0
230
1.0
 70
     8
 71
     3
 72
     8
 73
     4
 74
     0
 42
0.000000001
 43
0.0000000001
 40
0.0
 40
0.0
 40
0.0
 40
0.0
 40
0.0021922129794068
 40
0.0021922129794068
 40
0.0021922129794068
 40
0.0021922129794068
 10
21.00007561069734
 20
4.000000546412992
 30
0.0
 10
21.00011366901826
 20
3.995081789871783
 30
0.0
 10
21.00015752101985
 20
3.990423534295617
 30
0.0
 10
21.00020349201473
 20
3.98616573014706
 30
0.0
  0
SPLINE
  5
7FF5
330
7FE8
100
AcDbEntity
  8
0
100
AcDbSpline
210
0.0
220
0.0
230
1.0
 70
     8
 71
     3
 72
    42
 73
    38
 74
     0
 42
0.000000001
 43
0.0000000001
 40
0.0208995100669186
 40
0.0208995100669186
 40
0.0208995100669186
 40
0.0208995100669186
 40
0.0215652950860408
 40
0.0215652950860408
 40
0.0272926507786792
 40
0.0272926507786792
 40
0.0444615056471656
 40
0.0444615056471656
 40
0.0458716637434647
 40
0.0458716637434647
 40
0.0463959748649473
 40
0.0463959748649473
 40
0.0467402725188012
 40
0.0467402725188012
 40
0.0470594862819607
 40
0.0470594862819607
 40
0.0472222671376046
 40
0.0472222671376046
 40
0.0473852756431564
 40
0.0473852756431564
 40
0.0477156444244865
 40
0.0477156444244865
 40
0.0480404846871001
 40
0.0480404846871001
 40
0.048597573688384
 40
0.048597573688384
 40
0.0497869623818855
 40
0.0497869623818855
 40
0.0528454617010715
 40
0.0528454617010715
 40
0.0608569435280055
 40
0.0608569435280055
 40
0.0725270536645142
 40
0.0725270536645142
 40
0.0777168325917418
 40
0.0777168325917418
 40
0.0804599344708751
 40
0.0804599344708751
 40
0.0804599344708751
 40
0.0804599344708751
 10
21.00005494500381
 20
3.996550139374596
 30
0.0
 10
21.00005766156498
 20
3.996319345004174
 30
0.0
 10
21.00006027844566
 20
3.996099316541775
 30
0.0
 10
21.00008432070819
 20
3.994095289226649
 30
0.0
 10
21.00009667717966
 20
3.993179402825825
 30
0.0
 10
21.00011457606337
 20
3.991839500341311
 30
0.0
 10
21.00005184383926
 20
3.996173196400963
 30
0.0
 10
21.00012103904963
 20
3.991508538261973
 30
0.0
 10
21.00012746597656
 20
3.991074889013088
 30
0.0
 10
21.00014525703941
 20
3.989901322777002
 30
0.0
 10
21.0001510518472
 20
3.989520423624115
 30
0.0
 10
21.00016443236193
 20
3.988650910820119
 30
0.0
 10
21.00017075323933
 20
3.988241896334441
 30
0.0
 10
21.00018667833275
 20
3.987222673939869
 30
0.0
 10
21.00019624506659
 20
3.986613999461918
 30
0.0
 10
21.00021482566949
 20
3.985450355175821
 30
0.0
 10
21.0002219042474
 20
3.985009745015812
 30
0.0
 10
21.00023728141318
 20
3.9840609824271
 30
0.0
 10
21.00024569671389
 20
3.98354574199854
 30
0.0
 10
21.00027200251466
 20
3.981950180731725
 30
0.0
 10
21.0002911677065
 20
3.980808390287937
 30
0.0
 10
21.00032816847853
 20
3.978644439767098
 30
0.0
 10
21.00034655086264
 20
3.977588311677435
 30
0.0
 10
21.0003958924655
 20
3.974799056162692
 30
0.0
 10
21.00042683733822
 20
3.973098995950291
 30
0.0
 10
21.00052365233167
 20
3.967911219371449
 30
0.0
 10
21.00058996950022
 20
3.964546878251054
 30
0.0
 10
21.00083206544802
 20
3.952823330344775
 30
0.0
 10
21.00101736816333
 20
3.944864406191609
 30
0.0
 10
21.00173049029525
 20
3.917073320529412
 30
0.0
 10
21.00233445972463
 20
3.898814166320616
 30
0.0
 10
21.00383645519304
 20
3.860103828875952
 30
0.0
 10
21.00474895100215
 20
3.842295198608127
 30
0.0
 10
21.00559432132683
 20
3.826960736803208
 30
0.0
 10
21.00582699305709
 20
3.822999218869668
 30
0.0
 10
21.00603368915928
 20
3.81955080369614
 30
0.0
 10
21.00607492124395
 20
3.818880539262035
 30
0.0
 10
21.00607492126499
 20
3.818880538918927
 30
0.0
  0
SPLINE
  5
7FF6
330
7FE8
100
AcDbEntity
  8
0
100
AcDbSpline
210
0.0
220
0.0
230
1.0
 70
     8
 71
     3
 72
     8
 73
     4
 74
     0
 42
0.000000001
 43
0.0000000001
 40
0.0
 40
0.0
 40
0.0
 40
0.0
 40
0.0035844550659171
 40
0.0035844550659171
 40
0.0035844550659171
 40
0.0035844550659171
 10
21.00006818284848
 20
3.999999743562181
 30
0.0
 10
21.00004435155931
 20
3.993919399667383
 30
0.0
 10
21.00002088728996
 20
3.987176442129778
 30
0.0
 10
21.00000004833828
 20
3.980382203036974
 30
0.0
  0
CIRCLE
  5
7FF7
330
7FE8
100
AcDbEntity
  8
0
100
AcDbCircle
 10
0.0
 20
67.99999999999998
 30
0.0
 40
2.5
  0
CIRCLE
  5
7FF8
330
7FE8
100
AcDbEntity
  8
0
100
AcDbCircle
 10
0.0
 20
47.99999999999998
 30
0.0
 40
2.5
  0
LINE
  5
7FF9
330
7FE8
100
AcDbEntity
  8
0
100
AcDbLine
 10
17.00000000000001
 20
2.000000000000003
 30
0.0
 11
-17.00000000000001
 21
2.000000000000003
 31
0.0
  0
LINE
  5
7FFA
330
7FE8
100
AcDbEntity
  8
0
100
AcDbLine
 10
16.99999999999999
 20
86.0
 30
0.0
 11
-16.99999999999998
 21
86.0
 31
0.0
  0
SPLINE
  5
7FFB
330
7FE8
100
AcDbEntity
  8
0
100
AcDbSpline
210
0.0
220
0.0
230
1.0
 70
     8
 71
     3
 72
    17
 73
    13
 74
     0
 42
0.000000001
 43
0.0000000001
 40
-1.0
 40
-1.0
 40
-1.0
 40
-1.0
 40
-0.7994286890726884
 40
-0.7994286890726884
 40
-0.7994286890726884
 40
-0.3760960080974989
 40
-0.3760960080974989
 40
-0.3760960080974989
 40
-0.0765284972657522
 40
-0.0765284972657522
 40
-0.0765284972657522
 40
0.0
 40
0.0
 40
0.0
 40
0.0
 10
-19.0
 20
2.000000000000008
 30
0.0
 10
-18.99999961270332
 20
1.999093543231017
 30
0.0
 10
-19.12633150600683
 20
1.919863896633887
 30
0.0
 10
-19.33607694563731
 20
1.790687786202019
 30
0.0
 10
-19.77877285698461
 20
1.518044261591024
 30
0.0
 10
-20.61445008345503
 20
1.03420794787404
 30
0.0
 10
-21.48107962103019
 20
0.6388614064340238
 30
0.0
 10
-22.09434210949814
 20
0.3590980320063664
 30
0.0
 10
-22.71765761686515
 20
0.1217220476535411
 30
0.0
 10
-23.23393420695035
 20
0.0342615816127144
 30
0.0
 10
-23.36582391522682
 20
0.0119186445642904
 30
0.0
 10
-23.48832026105402
 20
0.0000045452574068
 30
0.0
 10
-23.6060606061109
 20
0.0000000001152107
 30
0.0
  0
LINE
  5
7FFC
330
7FE8
100
AcDbEntity
  8
0
100
AcDbLine
 10
-23.0
 20
0.0
 30
0.0
 11
-23.60606060606066
 21
0.0
 31
0.0
  0
ARC
  5
7FFD
330
7FE8
100
AcDbEntity
  8
0
100
AcDbCircle
 10
-23.0
 20
4.000000000000004
 30
0.0
 40
3.999999999999996
100
AcDbArc
 50
270.0000000000001
 51
320.3072250898738
  0
ARC
  5
7FFE
330
7FE8
100
AcDbEntity
  8
0
100
AcDbCircle
 10
-23.0
 20
4.000000000000004
 30
0.0
 40
1.999999999999992
100
AcDbArc
 50
276.2400290855438
 51
357.6024194731873
  0
LINE
  5
7FFF
330
7FE8
100
AcDbEntity
  8
0
100
AcDbLine
 10
-23.60606060606067
 20
2.000000000000013
 30
0.0
 11
-23.56202985673467
 21
2.000000000000013
 31
0.0
  0
LINE
  5
8000
330
7FE8
100
AcDbEntity
  8
0
100
AcDbLine
 10
-23.00619229314705
 20
2.000000000000013
 30
0.0
 11
-23.00219464735396
 21
2.000000000000013
 31
0.0
  0
SPLINE
  5
8001
330
7FE8
100
AcDbEntity
  8
0
100
AcDbSpline
210
0.0
220
0.0
230
1.0
 70
     8
 71
     3
 72
    14
 73
    10
 74
     0
 42
0.000000001
 43
0.0000000001
 40
0.0
 40
0.0
 40
0.0
 40
0.0
 40
0.3435149368843839
 40
0.3435149368843839
 40
0.3435149368843839
 40
0.7569946177101712
 40
0.7569946177101712
 40
0.7569946177101712
 40
1.0
 40
1.0
 40
1.0
 40
1.0
 10
-23.60606060606065
 20
2.000000000000014
 30
0.0
 10
-23.28490796720452
 20
2.000036879631406
 30
0.0
 10
-22.87246555817525
 20
1.996834167074752
 30
0.0
 10
-22.47647444984694
 20
1.998676128321907
 30
0.0
 10
-21.99983061430814
 20
2.000893247482649
 30
0.0
 10
-21.53729794759644
 20
2.001072402909165
 30
0.0
 10
-21.26242807110221
 20
2.001124325805046
 30
0.0
 10
-21.10088480183191
 20
2.00115484131463
 30
0.0
 10
-20.99999576705054
 20
2.000250547667963
 30
0.0
 10
-20.99999999948833
 20
1.999999999992559
 30
0.0
  0
LINE
  5
8002
330
7FE8
100
AcDbEntity
  8
0
100
AcDbLine
 10
-23.60606060606065
 20
0.0
 30
0.0
 11
-23.60606060606065
 21
2.000000000000013
 31
0.0
  0
SPLINE
  5
8003
330
7FE8
100
AcDbEntity
  8
0
100
AcDbSpline
210
0.0
220
0.0
230
1.0
 70
     8
 71
     3
 72
    10
 73
     6
 74
     0
 42
0.000000001
 43
0.0000000001
 40
0.0194209726103539
 40
0.0194209726103539
 40
0.0194209726103539
 40
0.0194209726103539
 40
0.0196622419932735
 40
0.0196622419932735
 40
0.0230051722834055
 40
0.0230051722834055
 40
0.0230051722834055
 40
0.0230051722834055
 10
-21.00000000127189
 20
3.980395661599239
 30
0.0
 10
-21.00000140351393
 20
3.980852842354174
 30
0.0
 10
-21.0000028160465
 20
3.981310174992188
 30
0.0
 10
-21.00002398161767
 20
3.988091085041441
 30
0.0
 10
-21.0000459575744
 20
3.994329164544546
 30
0.0
 10
-21.00006818308479
 20
3.99999980385606
 30
0.0
  0
SPLINE
  5
8004
330
7FE8
100
AcDbEntity
  8
0
100
AcDbSpline
210
0.0
220
0.0
230
1.0
 70
     8
 71
     3
 72
    38
 73
    34
 74
     0
 42
0.000000001
 43
0.0000000001
 40
0.039933671720162
 40
0.039933671720162
 40
0.039933671720162
 40
0.039933671720162
 40
0.0469877698964477
 40
0.0469877698964477
 40
0.0558887603010547
 40
0.0558887603010547
 40
0.0663363766467021
 40
0.0663363766467021
 40
0.0719856675339942
 40
0.0719856675339942
 40
0.0726843656111997
 40
0.0726843656111997
 40
0.0728640846284643
 40
0.0728640846284643
 40
0.0730236330939619
 40
0.0730236330939619
 40
0.0731531367419471
 40
0.0731531367419471
 40
0.073416220264076
 40
0.073416220264076
 40
0.073675952755465
 40
0.073675952755465
 40
0.074029580927876
 40
0.074029580927876
 40
0.0747108801475622
 40
0.0747108801475622
 40
0.0763270301272803
 40
0.0763270301272803
 40
0.0811704821330065
 40
0.0811704821330065
 40
0.0956913033900906
 40
0.0956913033900906
 40
0.0994858102532602
 40
0.0994858102532602
 40
0.0994858102532602
 40
0.0994858102532602
 10
-21.00607492126504
 20
3.818880538918262
 30
0.0
 10
-21.00607492126788
 20
3.818880538871934
 30
0.0
 10
-21.00578748880185
 20
3.823572116249506
 30
0.0
 10
-21.0050476880274
 20
3.836773077890975
 30
0.0
 10
-21.00444214822358
 20
3.848146543246079
 30
0.0
 10
-21.00300543592531
 20
3.880404216206771
 30
0.0
 10
-21.00215808088505
 20
3.902739628735727
 30
0.0
 10
-21.00107505692512
 20
3.941895393484882
 30
0.0
 10
-21.0007381279364
 20
3.956122107225438
 30
0.0
 10
-21.00038593245133
 20
3.975345909959529
 30
0.0
 10
-21.00034639958762
 20
3.977574125095333
 30
0.0
 10
-21.00029679776382
 20
3.980480368261159
 30
0.0
 10
-21.00028660259435
 20
3.981083594319737
 30
0.0
 10
-21.00026771464379
 20
3.982212316210302
 30
0.0
 10
-21.00025889676884
 20
3.982744063815589
 30
0.0
 10
-21.00024368039685
 20
3.98366944800939
 30
0.0
 10
-21.00023707545658
 20
3.984074077927352
 30
0.0
 10
-21.00021837264667
 20
3.985226968040018
 30
0.0
 10
-21.0002074227261
 20
3.98591221207519
 30
0.0
 10
-21.00018981507059
 20
3.987022929690223
 30
0.0
 10
-21.00018272841214
 20
3.987474948377419
 30
0.0
 10
-21.00016865654863
 20
3.988377088416447
 30
0.0
 10
-21.00016246633446
 20
3.988778265510716
 30
0.0
 10
-21.00014725154038
 20
3.989768418435506
 30
0.0
 10
-21.00014072339989
 20
3.990199593491529
 30
0.0
 10
-21.00012271300249
 20
3.99139263511611
 30
0.0
 10
-21.00011664023655
 20
3.991804265017238
 30
0.0
 10
-21.00009685270031
 20
3.993143688242794
 30
0.0
 10
-21.00009438909625
 20
3.993322806804205
 30
0.0
 10
-21.0000902355845
 20
3.993612487656083
 30
0.0
 10
-21.00012025255356
 20
3.991345323505279
 30
0.0
 10
-21.00008240252157
 20
3.99428737771319
 30
0.0
 10
-21.00007025682837
 20
3.995246979797304
 30
0.0
 10
-21.00005476880385
 20
3.996562815752787
 30
0.0
  0
SPLINE
  5
8005
330
7FE8
100
AcDbEntity
  8
0
100
AcDbSpline
210
0.0
220
0.0
230
1.0
 70
     8
 71
     3
 72
     8
 73
     4
 74
     0
 42
0.000000001
 43
0.0000000001
 40
0.1181762726722924
 40
0.1181762726722924
 40
0.1181762726722924
 40
0.1181762726722924
 40
0.1203710355602551
 40
0.1203710355602551
 40
0.1203710355602551
 40
0.1203710355602551
 10
-21.00020328803072
 20
3.986173546947805
 30
0.0
 10
-21.00015733988931
 20
3.990429234423065
 30
0.0
 10
-21.00011371301802
 20
3.995076099044597
 30
0.0
 10
-21.00007561045138
 20
4.000000578201337
 30
0.0
  0
SPLINE
  5
8006
330
7FE8
100
AcDbEntity
  8
0
100
AcDbSpline
210
0.0
220
0.0
230
1.0
 70
     8
 71
     3
 72
    32
 73
    28
 74
     0
 42
0.000000001
 43
0.0000000001
 40
0.0
 40
0.0
 40
0.0
 40
0.0
 40
0.0070452398512394
 40
0.0070452398512394
 40
0.0166405949134022
 40
0.0166405949134022
 40
0.0367140942336178
 40
0.0367140942336178
 40
0.0488284899429815
 40
0.0488284899429815
 40
0.0619943402182417
 40
0.0619943402182417
 40
0.0706188779607379
 40
0.0706188779607379
 40
0.0776906910843184
 40
0.0776906910843184
 40
0.083206531654479
 40
0.083206531654479
 40
0.0869816428402521
 40
0.0869816428402521
 40
0.0893395345161147
 40
0.0893395345161147
 40
0.0926179312827001
 40
0.0926179312827001
 40
0.0952548521179224
 40
0.0952548521179224
 40
0.0965320203284933
 40
0.0965320203284933
 40
0.0965320203284933
 40
0.0965320203284933
 10
-23.56202985673467
 20
2.000020061973682
 30
0.0
 10
-23.54510572274405
 20
2.000020928437347
 30
0.0
 10
-23.52555210341748
 20
2.000028134291587
 30
0.0
 10
-23.47775545401681
 20
2.000061132070803
 30
0.0
 10
-23.44841962908103
 20
2.000093689688013
 30
0.0
 10
-23.35657224070965
 20
2.000268440249707
 30
0.0
 10
-23.29198494495326
 20
2.000513808506921
 30
0.0
 10
-23.19633422836687
 20
2.000879055386726
 30
0.0
 10
-23.1627308170081
 20
2.000996414973311
 30
0.0
 10
-23.09182112294534
 20
2.001409895073773
 30
0.0
 10
-23.0522581531059
 20
2.001735751882129
 30
0.0
 10
-22.98348581636656
 20
2.002882807510429
 30
0.0
 10
-22.95529088112431
 20
2.00350236616804
 30
0.0
 10
-22.90345404909897
 20
2.005128901295201
 30
0.0
 10
-22.87967447351108
 20
2.00605655889377
 30
0.0
 10
-22.83787606748533
 20
2.008135314674988
 30
0.0
 10
-22.81951337891088
 20
2.009206873101506
 30
0.0
 10
-22.79004459208834
 20
2.011220388820671
 30
0.0
 10
-22.77830835320014
 20
2.012109549271575
 30
0.0
 10
-22.76105715750286
 20
2.013538564153831
 30
0.0
 10
-22.75481154098609
 20
2.014087788315304
 30
0.0
 10
-22.74169544413941
 20
2.015295134093777
 30
0.0
 10
-22.73541374729867
 20
2.015923299458989
 30
0.0
 10
-22.72807739542823
 20
2.016681793867726
 30
0.0
 10
-22.72587093349184
 20
2.016921975300924
 30
0.0
 10
-22.72413583696471
 20
2.017112587256192
 30
0.0
 10
-22.72383606974766
 20
2.017146192064858
 30
0.0
 10
-22.72383606961465
 20
2.017146192079754
 30
0.0
  0
LINE
  5
8007
330
7FE8
100
AcDbEntity
  8
0
100
AcDbLine
 10
-21.00000000000001
 20
2.000000000000011
 30
0.0
 11
-17.0
 21
2.000000000000003
 31
0.0
  0
LINE
  5
8008
330
7FE8
100
AcDbEntity
  8
0
100
AcDbLine
 10
-16.99999999999998
 20
86.0
 30
0.0
 11
-20.99999999999999
 21
86.0
 31
0.0
  0
LINE
  5
8009
330
7FE8
100
AcDbEntity
  8
0
100
AcDbLine
 10
-21.0
 20
2.000000000000011
 30
0.0
 11
-20.99999999999999
 21
86.0
 31
0.0
  0
LINE
  5
800A
330
7FE8
100
AcDbEntity
  8
0
100
AcDbLine
 10
21.00000000000001
 20
2.000000000000011
 30
0.0
 11
17.0
 21
2.000000000000003
 31
0.0
  0
LINE
  5
800B
330
7FE8
100
AcDbEntity
  8
0
100
AcDbLine
 10
21.0
 20
2.000000000000011
 30
0.0
 11
20.99999999999999
 21
86.0
 31
0.0
  0
LINE
  5
800C
330
7FE8
100
AcDbEntity
  8
0
100
AcDbLine
 10
16.99999999999998
 20
86.0
 30
0.0
 11
20.99999999999999
 21
86.0
 31
0.0
  0
LINE
  5
800D
330
7FE8
100
AcDbEntity
  8
0
100
AcDbLine
 10
60.50000000000006
 20
0.0
 30
0.0
 11
23.60606060606066
 21
0.0
 31
0.0
  0
LINE
  5
800E
330
7FE8
100
AcDbEntity
  8
0
100
AcDbLine
 10
60.50000000000006
 20
2.000000000000001
 30
0.0
 11
60.50000000000006
 21
0.0
 31
0.0
  0
LINE
  5
800F
330
7FE8
100
AcDbEntity
  8
0
100
AcDbLine
 10
23.60606060606067
 20
2.000000000000013
 30
0.0
 11
60.50000000000006
 21
2.000000000000001
 31
0.0
  0
LINE
  5
8010
330
7FE8
100
AcDbEntity
  8
0
100
AcDbLine
 10
-60.50000000000006
 20
2.000000000000001
 30
0.0
 11
-23.60606060606067
 21
2.000000000000013
 31
0.0
  0
LINE
  5
8011
330
7FE8
100
AcDbEntity
  8
0
100
AcDbLine
 10
-60.50000000000006
 20
0.0
 30
0.0
 11
-60.50000000000006
 21
2.000000000000001
 31
0.0
  0
LINE
  5
8012
330
7FE8
100
AcDbEntity
  8
0
100
AcDbLine
 10
-23.60606060606066
 20
0.0
 30
0.0
 11
-60.50000000000006
 21
0.0
 31
0.0
  0
ENDBLK
  5
7FEA
330
7FE8
100
AcDbEntity
  8
0
100
AcDbBlockEnd
  0
BLOCK
  5
8014
330
8013
100
AcDbEntity
  8
0
100
AcDbBlockBegin
  2
SAE340_38_2-ISO
 70
     0
 10
0.0
 20
0.0
 30
0.0
  3
SAE340_38_2-ISO
  1

  0
LINE
  5
8016
330
8013
100
AcDbEntity
  8
0
100
AcDbLine
 10
43.61316156241268
 20
-35.64892471084599
 30
0.0
 11
43.36118889778422
 21
-35.79440119659766
 31
0.0
  0
SPLINE
  5
8017
330
8013
100
AcDbEntity
  8
0
100
AcDbSpline
210
0.0
220
0.0
230
1.0
 70
     8
 71
     3
 72
    14
 73
    10
 74
     0
 42
0.000000001
 43
0.0000000001
 40
0.0
 40
0.0
 40
0.0
 40
0.0
 40
0.3435149368843839
 40
0.3435149368843839
 40
0.3435149368843839
 40
0.7569946177101712
 40
0.7569946177101712
 40
0.7569946177101712
 40
1.0
 40
1.0
 40
1.0
 40
1.0
 10
45.45592468914128
 20
-34.62057200948819
 30
0.0
 10
45.22880940257272
 20
-34.70176912522911
 30
0.0
 10
44.9394332380662
 20
-34.71759265526377
 30
0.0
 10
44.65812277678913
 20
-34.74546593229975
 30
0.0
 10
44.31951694847562
 20
-34.77901624541548
 30
0.0
 10
43.99233028130651
 20
-34.83062152686321
 30
0.0
 10
43.79793121266175
 20
-35.05602503148268
 30
0.0
 10
43.68368129378191
 20
-35.18849651037162
 30
0.0
 10
43.61298140531039
 20
-35.35653396649118
 30
0.0
 10
43.61316156205614
 20
-35.64892470928492
 30
0.0
  0
LINE
  5
8018
330
8013
100
AcDbEntity
  8
0
100
AcDbLine
 10
45.02737512478576
 20
-34.37314880314647
 30
0.0
 11
45.45592468914129
 21
-34.62057200948823
 31
0.0
  0
ELLIPSE
  5
8019
330
8013
100
AcDbEntity
  8
0
100
AcDbEllipse
 10
43.61316156241268
 20
-35.18964538407419
 30
0.0
 11
1.999999999999992
 21
-0.0000000000001193
 31
0.0
210
0.0
220
0.0
230
1.0
 40
0.5773502691896258
 41
0.7853981633976899
 42
2.356194490192592
  0
LINE
  5
801A
330
8013
100
AcDbEntity
  8
0
100
AcDbLine
 10
42.19894800003959
 20
-35.60135613112231
 30
0.0
 11
42.19894800003959
 21
-34.37314880314647
 31
0.0
  0
LINE
  5
801B
330
8013
100
AcDbEntity
  8
0
100
AcDbLine
 10
42.19894800003959
 20
-35.61282642186154
 30
0.0
 11
42.19894800003959
 21
-35.60135613112231
 31
0.0
  0
LINE
  5
801C
330
8013
100
AcDbEntity
  8
0
100
AcDbLine
 10
42.19894800003959
 20
-36.46542129177372
 30
0.0
 11
42.19894800003959
 21
-35.61282642186154
 31
0.0
  0
LINE
  5
801D
330
8013
100
AcDbEntity
  8
0
100
AcDbLine
 10
43.36118889778422
 20
-35.79440119659766
 30
0.0
 11
42.19894800003959
 21
-36.46542129177372
 31
0.0
  0
ELLIPSE
  5
801E
330
8013
100
AcDbEntity
  8
0
100
AcDbEllipse
 10
-17.90512840081693
 20
-72.79951914305751
 30
0.0
 11
-2.5
 21
0.0
 31
0.0
210
0.0
220
0.0
230
1.0
 40
0.5773502691896258
 41
4.425632428173148
 42
5.681921090500457
  0
LINE
  5
801F
330
8013
100
AcDbEntity
  8
0
100
AcDbLine
 10
-18.61223518200351
 20
-87.0882093092927
 30
0.0
 11
-42.65386574234611
 21
-73.20776743352138
 31
0.0
  0
LINE
  5
8020
330
8013
100
AcDbEntity
  8
0
100
AcDbLine
 10
17.80376404910368
 20
-37.89429030839725
 30
0.0
 11
16.74310387732386
 21
-37.28191787270143
 31
0.0
  0
LINE
  5
8021
330
8013
100
AcDbEntity
  8
0
100
AcDbLine
 10
-42.65386574234611
 20
-71.57477427166593
 30
0.0
 11
-18.61223518200351
 21
-85.45521614743726
 31
0.0
  0
ELLIPSE
  5
8022
330
8013
100
AcDbEntity
  8
0
100
AcDbEllipse
 10
-17.90512840081693
 20
-71.16652598120206
 30
0.0
 11
-2.5
 21
0.0000000000000001
 31
0.0
210
0.0
220
0.0
230
1.0
 40
0.5773502691896258
 41
4.425632428173148
 42
8.140738186186027
  0
LINE
  5
8023
330
8013
100
AcDbEntity
  8
0
100
AcDbLine
 10
43.61316156241267
 20
-51.16235974847278
 30
0.0
 11
43.61316156241268
 21
-35.64892471084599
 31
0.0
  0
ELLIPSE
  5
8024
330
8013
100
AcDbEntity
  8
0
100
AcDbEllipse
 10
40.78473443766648
 20
-49.52936658661733
 30
0.0
 11
1.999999999999997
 21
-3.464101615137756
 31
0.0
210
0.0
220
0.0
230
1.0
 40
0.5773502691896248
 41
0.0
 42
0.7853981633974457
  0
LINE
  5
8025
330
8013
100
AcDbEntity
  8
0
100
AcDbLine
 10
-18.61223518200351
 20
-85.45521614743726
 30
0.0
 11
-17.19802161963041
 21
-84.63871956650953
 31
0.0
  0
LINE
  5
8026
330
8013
100
AcDbEntity
  8
0
100
AcDbLine
 10
43.61316156241267
 20
-51.16235974847278
 30
0.0
 11
-15.78380805725732
 21
-85.45521614743726
 31
0.0
  0
ELLIPSE
  5
8027
330
8013
100
AcDbEntity
  8
0
100
AcDbEllipse
 10
-18.61223518200351
 20
-83.82222298558179
 30
0.0
 11
2.000000000000001
 21
-3.464101615137755
 31
0.0
210
0.0
220
0.0
230
1.0
 40
0.5773502691896259
 41
5.497787143782137
 42
7.068583470577033
  0
LINE
  5
8028
330
8013
100
AcDbEntity
  8
0
100
AcDbLine
 10
71.54387941928137
 20
-24.83034501355367
 30
0.0
 11
72.95809298165446
 21
-24.01384843262594
 31
0.0
  0
LINE
  5
8029
330
8013
100
AcDbEntity
  8
0
100
AcDbLine
 10
45.45592468914129
 20
-34.62057200948823
 30
0.0
 11
71.54387941928137
 21
-24.83034501355367
 31
0.0
  0
ELLIPSE
  5
802A
330
8013
100
AcDbEntity
  8
0
100
AcDbEllipse
 10
59.16951074851674
 20
46.81722996285433
 30
0.0
 11
-3.25
 21
5.62916512459885
 31
0.0
210
0.0
220
0.0
230
1.0
 40
0.577350269189626
 41
0.2193254863005949
 42
2.922267167289197
  0
ELLIPSE
  5
802B
330
8013
100
AcDbEntity
  8
0
100
AcDbEllipse
 10
66.94768534156877
 20
46.40898167239047
 30
0.0
 11
1.250000000000129
 21
-2.165063509461021
 31
0.0
210
0.0
220
0.0
230
1.0
 40
0.5773502691896258
 41
3.742856870268589
 42
5.681921090500105
  0
LINE
  5
802C
330
8013
100
AcDbEntity
  8
0
100
AcDbLine
 10
46.44158868715886
 20
70.49563080975838
 30
0.0
 11
72.9580929816544
 21
55.1863199173635
 31
0.0
  0
LINE
  5
802D
330
8013
100
AcDbEntity
  8
0
100
AcDbLine
 10
72.95809298165446
 20
-24.01384843262594
 30
0.0
 11
72.9580929816544
 21
55.1863199173635
 31
0.0
  0
ELLIPSE
  5
802E
330
8013
100
AcDbEntity
  8
0
100
AcDbEllipse
 10
43.61316156241268
 20
68.86263764790292
 30
0.0
 11
3.999999999999999
 21
-0.0000000000002383
 31
0.0
210
0.0
220
0.0
230
1.0
 40
0.5773502691896259
 41
0.7853981633976926
 42
2.356194490192585
  0
ELLIPSE
  5
802F
330
8013
100
AcDbEntity
  8
0
100
AcDbEllipse
 10
16.38955048673059
 20
44.16361607483921
 30
0.0
 11
1.249999999999871
 21
2.16506350946117
 31
0.0
210
0.0
220
0.0
230
1.0
 40
0.577350269189626
 41
3.742856870268582
 42
5.681921090500118
  0
ELLIPSE
  5
8030
330
8013
100
AcDbEntity
  8
0
100
AcDbEllipse
 10
17.80376404910368
 20
43.34711949391148
 30
0.0
 11
-1.25
 21
-2.165063509461096
 31
0.0
210
0.0
220
0.0
230
0.9999999999999998
 40
0.577350269189626
 41
0.0
 42
6.283185307179586
  0
LINE
  5
8031
330
8013
100
AcDbEntity
  8
0
100
AcDbLine
 10
-17.19802161963041
 20
-69.12528452888276
 30
0.0
 11
11.08624962783149
 21
-25.85096573971331
 31
0.0
  0
LINE
  5
8032
330
8013
100
AcDbEntity
  8
0
100
AcDbLine
 10
-15.78380805725732
 20
-69.94178110981048
 30
0.0
 11
-17.19802161963041
 21
-69.12528452888276
 31
0.0
  0
LINE
  5
8033
330
8013
100
AcDbEntity
  8
0
100
AcDbLine
 10
12.50046319020458
 20
-26.66746232064103
 30
0.0
 11
-15.78380805725732
 21
-69.94178110981048
 31
0.0
  0
LINE
  5
8034
330
8013
100
AcDbEntity
  8
0
100
AcDbLine
 10
12.50046319020458
 20
-26.66746232064103
 30
0.0
 11
11.08624962783149
 21
-25.85096573971331
 31
0.0
  0
LINE
  5
8035
330
8013
100
AcDbEntity
  8
0
100
AcDbLine
 10
11.08624962783149
 20
-25.85096573971331
 30
0.0
 11
11.0862496278315
 21
53.34920261027612
 31
0.0
  0
LINE
  5
8036
330
8013
100
AcDbEntity
  8
0
100
AcDbLine
 10
12.50046319020459
 20
52.5327060293484
 30
0.0
 11
12.50046319020458
 21
-26.66746232064103
 31
0.0
  0
LINE
  5
8037
330
8013
100
AcDbEntity
  8
0
100
AcDbLine
 10
11.0862496278315
 20
53.34920261027612
 30
0.0
 11
12.50046319020459
 21
52.5327060293484
 31
0.0
  0
LINE
  5
8038
330
8013
100
AcDbEntity
  8
0
100
AcDbLine
 10
-15.78380805725732
 20
-69.94178110981048
 30
0.0
 11
-15.78380805725732
 21
-85.45521614743726
 31
0.0
  0
LINE
  5
8039
330
8013
100
AcDbEntity
  8
0
100
AcDbLine
 10
42.19894800003959
 20
-34.37314880314647
 30
0.0
 11
42.19894800003959
 21
69.67913422883064
 31
0.0
  0
LINE
  5
803A
330
8013
100
AcDbEntity
  8
0
100
AcDbLine
 10
42.19894800003959
 20
69.67913422883064
 30
0.0
 11
12.50046319020459
 21
52.5327060293484
 31
0.0
  0
LINE
  5
803B
330
8013
100
AcDbEntity
  8
0
100
AcDbLine
 10
11.0862496278315
 20
53.34920261027612
 30
0.0
 11
40.78473443766648
 21
70.49563080975836
 31
0.0
  0
LINE
  5
803C
330
8013
100
AcDbEntity
  8
0
100
AcDbLine
 10
-17.19802161963041
 20
-84.63871956650953
 30
0.0
 11
-17.19802161963041
 21
-69.12528452888276
 31
0.0
  0
LINE
  5
803D
330
8013
100
AcDbEntity
  8
0
100
AcDbLine
 10
-18.61223518200351
 20
-85.45521614743726
 30
0.0
 11
-18.61223518200351
 21
-87.0882093092927
 31
0.0
  0
LINE
  5
803E
330
8013
100
AcDbEntity
  8
0
100
AcDbLine
 10
-17.19802161963041
 20
-84.63871956650953
 30
0.0
 11
-15.78380805725732
 21
-85.45521614743726
 31
0.0
  0
ELLIPSE
  5
803F
330
8013
100
AcDbEntity
  8
0
100
AcDbEllipse
 10
-18.61223518200351
 20
-83.82222298558179
 30
0.0
 11
1.000000000000001
 21
-1.732050807568878
 31
0.0
210
0.0
220
0.0
230
1.0
 40
0.577350269189626
 41
5.49778714378214
 42
7.068583470577038
  0
LINE
  5
8040
330
8013
100
AcDbEntity
  8
0
100
AcDbLine
 10
45.02737512478577
 20
-34.37314880314647
 30
0.0
 11
45.02737512478576
 21
69.67913422883064
 31
0.0
  0
ELLIPSE
  5
8041
330
8013
100
AcDbEntity
  8
0
100
AcDbEllipse
 10
43.61316156241268
 20
68.86263764790292
 30
0.0
 11
-1.999999999999997
 21
-0.0000000000001195
 31
0.0
210
0.0
220
0.0
230
1.0
 40
0.5773502691896258
 41
3.926990816987004
 42
5.497787143781901
  0
LINE
  5
8042
330
8013
100
AcDbEntity
  8
0
100
AcDbLine
 10
72.9580929816544
 20
55.1863199173635
 30
0.0
 11
71.54387941928131
 21
54.36982333643577
 31
0.0
  0
LINE
  5
8043
330
8013
100
AcDbEntity
  8
0
100
AcDbLine
 10
71.54387941928137
 20
-24.83034501355367
 30
0.0
 11
71.54387941928131
 21
54.36982333643577
 31
0.0
  0
LINE
  5
8044
330
8013
100
AcDbEntity
  8
0
100
AcDbLine
 10
42.19894800003959
 20
69.67913422883064
 30
0.0
 11
40.78473443766648
 21
70.49563080975836
 31
0.0
  0
LINE
  5
8045
330
8013
100
AcDbEntity
  8
0
100
AcDbLine
 10
45.02737512478576
 20
69.67913422883064
 30
0.0
 11
46.44158868715886
 21
70.49563080975838
 31
0.0
  0
LINE
  5
8046
330
8013
100
AcDbEntity
  8
0
100
AcDbLine
 10
71.54387941928131
 20
54.36982333643577
 30
0.0
 11
45.02737512478576
 21
69.67913422883064
 31
0.0
  0
ELLIPSE
  5
8047
330
8013
100
AcDbEntity
  8
0
100
AcDbEllipse
 10
57.75529718614361
 20
46.00073338192659
 30
0.0
 11
-3.250000000000003
 21
5.629165124598854
 31
0.0
210
0.0
220
0.0
230
1.0
 40
0.5773502691896258
 41
0.0
 42
6.283185307179586
  0
ELLIPSE
  5
8048
330
8013
100
AcDbEntity
  8
0
100
AcDbEllipse
 10
65.53347177919565
 20
45.59248509146273
 30
0.0
 11
-1.25
 21
2.165063509461095
 31
0.0
210
0.0
220
0.0
230
1.0
 40
0.577350269189626
 41
0.0
 42
6.283185307179586
  0
LINE
  5
8049
330
8013
100
AcDbEntity
  8
0
100
AcDbLine
 10
-16.61223518200351
 20
-87.28632460071956
 30
0.0
 11
42.78473443766649
 21
-52.99346820175508
 31
0.0
  0
LINE
  5
804A
330
8013
100
AcDbEntity
  8
0
100
AcDbLine
 10
-4.341534688965884
 20
-49.45513962471477
 30
0.0
 11
-42.65386574234611
 21
-71.57477427166593
 31
0.0
  0
ELLIPSE
  5
804B
330
8013
100
AcDbEntity
  8
0
100
AcDbEllipse
 10
-42.65386574234611
 20
-69.94178110981048
 30
0.0
 11
2.000000000000206
 21
-3.464101615137636
 31
0.0
210
0.0
220
0.0
230
1.0
 40
0.5773502691896259
 41
3.926990816986998
 42
5.497787143781897
  0
LINE
  5
804C
330
8013
100
AcDbEntity
  8
0
100
AcDbLine
 10
-44.0680793047192
 20
-69.12528452888274
 30
0.0
 11
-0.9131381741220323
 21
-44.20976765027001
 31
0.0
  0
LINE
  5
804D
330
8013
100
AcDbEntity
  8
0
100
AcDbLine
 10
-45.48229286709229
 20
-68.30878794795502
 30
0.0
 11
-44.0680793047192
 21
-69.12528452888274
 31
0.0
  0
LINE
  5
804E
330
8013
100
AcDbEntity
  8
0
100
AcDbLine
 10
-42.65386574234611
 20
-73.20776743352138
 30
0.0
 11
-42.65386574234611
 21
-71.57477427166593
 31
0.0
  0
ELLIPSE
  5
804F
330
8013
100
AcDbEntity
  8
0
100
AcDbEllipse
 10
-42.65386574234611
 20
-69.94178110981048
 30
0.0
 11
1.000000000000104
 21
-1.732050807568819
 31
0.0
210
0.0
220
0.0
230
1.0
 40
0.5773502691896257
 41
3.926990816986997
 42
5.497787143781897
  0
ELLIPSE
  5
8050
330
8013
100
AcDbEntity
  8
0
100
AcDbEllipse
 10
59.16951074851674
 20
-10.33753070208648
 30
0.0
 11
-3.250000000000002
 21
5.629165124598852
 31
0.0
210
0.0
220
0.0
230
1.0
 40
0.5773502691896259
 41
0.2193254863005949
 42
2.922267167289195
  0
ELLIPSE
  5
8051
330
8013
100
AcDbEntity
  8
0
100
AcDbEllipse
 10
57.75529718614361
 20
-11.15402728301422
 30
0.0
 11
-3.250000000000003
 21
5.629165124598854
 31
0.0
210
0.0
220
0.0
230
1.0
 40
0.5773502691896258
 41
0.0
 42
6.283185307179586
  0
ELLIPSE
  5
8052
330
8013
100
AcDbEntity
  8
0
100
AcDbEllipse
 10
51.3913361554647
 20
-18.09424822089988
 30
0.0
 11
1.250000000000129
 21
-2.165063509461021
 31
0.0
210
0.0
220
0.0
230
1.0
 40
0.5773502691896259
 41
3.742856870268587
 42
5.681921090500105
  0
ELLIPSE
  5
8053
330
8013
100
AcDbEntity
  8
0
100
AcDbEllipse
 10
51.3913361554647
 20
-1.764316602345363
 30
0.0
 11
1.250000000000129
 21
-2.165063509461021
 31
0.0
210
0.0
220
0.0
230
1.0
 40
0.5773502691896259
 41
3.742856870268587
 42
5.681921090500105
  0
ELLIPSE
  5
8054
330
8013
100
AcDbEntity
  8
0
100
AcDbEllipse
 10
51.3913361554647
 20
14.56561501620916
 30
0.0
 11
1.250000000000129
 21
-2.165063509461021
 31
0.0
210
0.0
220
0.0
230
1.0
 40
0.5773502691896259
 41
3.742856870268587
 42
5.681921090500105
  0
ELLIPSE
  5
8055
330
8013
100
AcDbEntity
  8
0
100
AcDbEllipse
 10
51.3913361554647
 20
30.89554663476367
 30
0.0
 11
1.250000000000129
 21
-2.165063509461021
 31
0.0
210
0.0
220
0.0
230
1.0
 40
0.5773502691896259
 41
3.742856870268589
 42
5.681921090500105
  0
ELLIPSE
  5
8056
330
8013
100
AcDbEntity
  8
0
100
AcDbEllipse
 10
51.3913361554647
 20
47.22547825331819
 30
0.0
 11
1.250000000000129
 21
-2.165063509461021
 31
0.0
210
0.0
220
0.0
230
1.0
 40
0.5773502691896259
 41
3.742856870268589
 42
5.681921090500106
  0
ELLIPSE
  5
8057
330
8013
100
AcDbEntity
  8
0
100
AcDbEllipse
 10
49.97712259309159
 20
-18.91074480182762
 30
0.0
 11
-1.25
 21
2.165063509461095
 31
0.0
210
0.0
220
0.0
230
1.0
 40
0.577350269189626
 41
0.0
 42
6.283185307179586
  0
ELLIPSE
  5
8058
330
8013
100
AcDbEntity
  8
0
100
AcDbEllipse
 10
49.97712259309159
 20
-2.5808131832731
 30
0.0
 11
-1.25
 21
2.165063509461095
 31
0.0
210
0.0
220
0.0
230
1.0
 40
0.577350269189626
 41
0.0
 42
6.283185307179586
  0
ELLIPSE
  5
8059
330
8013
100
AcDbEntity
  8
0
100
AcDbEllipse
 10
49.97712259309159
 20
13.74911843528142
 30
0.0
 11
-1.25
 21
2.165063509461095
 31
0.0
210
0.0
220
0.0
230
1.0
 40
0.577350269189626
 41
0.0
 42
6.283185307179586
  0
ELLIPSE
  5
805A
330
8013
100
AcDbEntity
  8
0
100
AcDbEllipse
 10
49.97712259309159
 20
30.07905005383593
 30
0.0
 11
-1.25
 21
2.165063509461095
 31
0.0
210
0.0
220
0.0
230
1.0
 40
0.577350269189626
 41
0.0
 42
6.283185307179586
  0
ELLIPSE
  5
805B
330
8013
100
AcDbEntity
  8
0
100
AcDbEllipse
 10
49.97712259309159
 20
46.40898167239045
 30
0.0
 11
-1.25
 21
2.165063509461095
 31
0.0
210
0.0
220
0.0
230
1.0
 40
0.577350269189626
 41
0.0
 42
6.283185307179586
  0
ELLIPSE
  5
805C
330
8013
100
AcDbEntity
  8
0
100
AcDbEllipse
 10
51.3913361554647
 20
63.5554098718727
 30
0.0
 11
1.250000000000129
 21
-2.165063509461021
 31
0.0
210
0.0
220
0.0
230
1.0
 40
0.5773502691896259
 41
3.742856870268589
 42
5.681921090500106
  0
ELLIPSE
  5
805D
330
8013
100
AcDbEntity
  8
0
100
AcDbEllipse
 10
7.550715721898737
 20
87.23381071877675
 30
0.0
 11
1.25
 21
-2.165063509461095
 31
0.0
210
0.0
220
0.0
230
1.0
 40
0.5773502691896259
 41
0.0
 42
6.283185307179586
  0
ELLIPSE
  5
805E
330
8013
100
AcDbEntity
  8
0
100
AcDbEllipse
 10
8.964929284271851
 20
88.05030729970448
 30
0.0
 11
1.25000000000013
 21
-2.165063509461022
 31
0.0
210
0.0
220
0.0
230
1.0
 40
0.5773502691896259
 41
3.742856870268589
 42
5.681921090500108
  0
ELLIPSE
  5
805F
330
8013
100
AcDbEntity
  8
0
100
AcDbEllipse
 10
49.97712259309159
 20
62.73891329094496
 30
0.0
 11
-1.25
 21
2.165063509461095
 31
0.0
210
0.0
220
0.0
230
1.0
 40
0.577350269189626
 41
0.0
 42
6.283185307179586
  0
ELLIPSE
  5
8060
330
8013
100
AcDbEntity
  8
0
100
AcDbEllipse
 10
66.94768534156877
 20
-18.91074480182761
 30
0.0
 11
1.250000000000129
 21
-2.165063509461021
 31
0.0
210
0.0
220
0.0
230
1.0
 40
0.5773502691896259
 41
3.742856870268589
 42
5.681921090500106
  0
ELLIPSE
  5
8061
330
8013
100
AcDbEntity
  8
0
100
AcDbEllipse
 10
66.94768534156877
 20
-2.580813183273082
 30
0.0
 11
1.250000000000129
 21
-2.165063509461021
 31
0.0
210
0.0
220
0.0
230
1.0
 40
0.5773502691896259
 41
3.742856870268589
 42
5.681921090500106
  0
ELLIPSE
  5
8062
330
8013
100
AcDbEntity
  8
0
100
AcDbEllipse
 10
66.94768534156877
 20
13.74911843528142
 30
0.0
 11
1.250000000000129
 21
-2.165063509461021
 31
0.0
210
0.0
220
0.0
230
1.0
 40
0.5773502691896258
 41
3.742856870268589
 42
5.681921090500105
  0
ELLIPSE
  5
8063
330
8013
100
AcDbEntity
  8
0
100
AcDbEllipse
 10
66.94768534156877
 20
30.07905005383595
 30
0.0
 11
1.250000000000129
 21
-2.165063509461021
 31
0.0
210
0.0
220
0.0
230
1.0
 40
0.5773502691896258
 41
3.742856870268589
 42
5.681921090500105
  0
ELLIPSE
  5
8064
330
8013
100
AcDbEntity
  8
0
100
AcDbEllipse
 10
65.53347177919565
 20
-19.72724138275535
 30
0.0
 11
-1.25
 21
2.165063509461095
 31
0.0
210
0.0
220
0.0
230
1.0
 40
0.577350269189626
 41
0.0
 42
6.283185307179586
  0
ELLIPSE
  5
8065
330
8013
100
AcDbEntity
  8
0
100
AcDbEllipse
 10
65.53347177919565
 20
-3.397309764200819
 30
0.0
 11
-1.25
 21
2.165063509461095
 31
0.0
210
0.0
220
0.0
230
1.0
 40
0.577350269189626
 41
0.0
 42
6.283185307179586
  0
ELLIPSE
  5
8066
330
8013
100
AcDbEntity
  8
0
100
AcDbEllipse
 10
65.53347177919565
 20
12.93262185435368
 30
0.0
 11
-1.25
 21
2.165063509461095
 31
0.0
210
0.0
220
0.0
230
1.0
 40
0.577350269189626
 41
0.0
 42
6.283185307179586
  0
ELLIPSE
  5
8067
330
8013
100
AcDbEntity
  8
0
100
AcDbEllipse
 10
65.53347177919565
 20
29.26255347290821
 30
0.0
 11
-1.25
 21
2.165063509461095
 31
0.0
210
0.0
220
0.0
230
1.0
 40
0.577350269189626
 41
0.0
 42
6.283185307179586
  0
LINE
  5
8068
330
8013
100
AcDbEntity
  8
0
100
AcDbLine
 10
-11.21602574114224
 20
20.2837356299039
 30
0.0
 11
-10.50881389715157
 21
19.20171691637334
 31
0.0
  0
LINE
  5
8069
330
8013
100
AcDbEntity
  8
0
100
AcDbLine
 10
-15.78380805725732
 20
-10.33753070208651
 30
0.0
 11
-44.06807930471922
 21
-53.61184949125597
 31
0.0
  0
LINE
  5
806A
330
8013
100
AcDbEntity
  8
0
100
AcDbLine
 10
-17.19802161963041
 20
-9.521034121158788
 30
0.0
 11
-15.78380805725732
 21
-10.33753070208651
 31
0.0
  0
LINE
  5
806B
330
8013
100
AcDbEntity
  8
0
100
AcDbLine
 10
-45.48229286709231
 20
-52.79535291032823
 30
0.0
 11
-17.19802161963041
 21
-9.521034121158784
 31
0.0
  0
LINE
  5
806C
330
8013
100
AcDbEntity
  8
0
100
AcDbLine
 10
-44.06807930471922
 20
-53.61184949125597
 30
0.0
 11
-45.48229286709231
 21
-52.79535291032823
 31
0.0
  0
LINE
  5
806D
330
8013
100
AcDbEntity
  8
0
100
AcDbLine
 10
-15.7838080572573
 20
68.86263764790292
 30
0.0
 11
-15.78380805725732
 21
-10.33753070208651
 31
0.0
  0
LINE
  5
806E
330
8013
100
AcDbEntity
  8
0
100
AcDbLine
 10
-17.1980216196304
 20
69.67913422883064
 30
0.0
 11
-15.7838080572573
 21
68.86263764790292
 31
0.0
  0
LINE
  5
806F
330
8013
100
AcDbEntity
  8
0
100
AcDbLine
 10
-17.19802161963041
 20
-9.521034121158788
 30
0.0
 11
-17.1980216196304
 21
69.67913422883064
 31
0.0
  0
ELLIPSE
  5
8070
330
8013
100
AcDbEntity
  8
0
100
AcDbEllipse
 10
-0.2274588711532877
 20
79.47709319996336
 30
0.0
 11
-3.250000000000004
 21
5.629165124598848
 31
0.0
210
0.0
220
0.0
230
1.0
 40
0.5773502691896258
 41
4.712388980384691
 42
7.853981633974484
  0
ELLIPSE
  5
8071
330
8013
100
AcDbEntity
  8
0
100
AcDbEllipse
 10
1.186754691219826
 20
80.2935897808911
 30
0.0
 11
-3.250000000000001
 21
5.62916512459885
 31
0.0
210
0.0
220
0.0
230
0.9999999999999998
 40
0.5773502691896258
 41
0.2193254863005975
 42
1.570796326794896
  0
ELLIPSE
  5
8072
330
8013
100
AcDbEntity
  8
0
100
AcDbEllipse
 10
-8.005633464205317
 20
88.05030729970448
 30
0.0
 11
1.25
 21
-2.165063509461095
 31
0.0
210
0.0
220
0.0
230
1.0
 40
0.5773502691896259
 41
0.0
 42
6.283185307179586
  0
ELLIPSE
  5
8073
330
8013
100
AcDbEntity
  8
0
100
AcDbEllipse
 10
-6.591419901832202
 20
88.86680388063224
 30
0.0
 11
1.250000000000129
 21
-2.165063509461021
 31
0.0
210
0.0
220
0.0
230
1.0
 40
0.5773502691896258
 41
3.742856870268589
 42
5.68192109050011
  0
LINE
  5
8074
330
8013
100
AcDbEntity
  8
0
100
AcDbLine
 10
12.50046319020458
 20
86.82556242831289
 30
0.0
 11
12.50046319020459
 21
88.45855559016834
 31
0.0
  0
ELLIPSE
  5
8075
330
8013
100
AcDbEntity
  8
0
100
AcDbEllipse
 10
11.08624962783149
 20
87.64205900924062
 30
0.0
 11
1.999999999999997
 21
-0.0000000000000002
 31
0.0
210
0.0
220
0.0
230
1.0
 40
0.5773502691896258
 41
5.497787143782141
 42
7.068583470577028
  0
LINE
  5
8076
330
8013
100
AcDbEntity
  8
0
100
AcDbLine
 10
13.91467675257768
 20
86.00906584738517
 30
0.0
 11
13.91467675257768
 21
54.98219577213156
 31
0.0
  0
ELLIPSE
  5
8077
330
8013
100
AcDbEntity
  8
0
100
AcDbEllipse
 10
11.08624962783149
 20
87.64205900924062
 30
0.0
 11
3.999999999999999
 21
-0.0000000000000003
 31
0.0
210
0.0
220
0.0
230
1.0
 40
0.5773502691896258
 41
5.497787143782137
 42
7.068583470577028
  0
LINE
  5
8078
330
8013
100
AcDbEntity
  8
0
100
AcDbLine
 10
12.50046319020459
 20
88.45855559016834
 30
0.0
 11
13.91467675257769
 21
89.27505217109606
 31
0.0
  0
LINE
  5
8079
330
8013
100
AcDbEntity
  8
0
100
AcDbLine
 10
12.50046319020458
 20
86.82556242831289
 30
0.0
 11
13.91467675257768
 21
86.00906584738517
 31
0.0
  0
LINE
  5
807A
330
8013
100
AcDbEntity
  8
0
100
AcDbLine
 10
15.08624962783148
 20
55.65860368703463
 30
0.0
 11
15.08624962783148
 21
87.64205900924062
 31
0.0
  0
LINE
  5
807B
330
8013
100
AcDbEntity
  8
0
100
AcDbLine
 10
-14.01604110429095
 20
103.7678664825632
 30
0.0
 11
12.50046319020459
 21
88.45855559016834
 31
0.0
  0
LINE
  5
807C
330
8013
100
AcDbEntity
  8
0
100
AcDbLine
 10
-14.01604110429098
 20
71.51625153591801
 30
0.0
 11
-14.01604110429095
 21
103.7678664825632
 31
0.0
  0
LINE
  5
807D
330
8013
100
AcDbEntity
  8
0
100
AcDbLine
 10
-44.0680793047192
 20
-69.12528452888274
 30
0.0
 11
-44.06807930471922
 21
-53.61184949125597
 31
0.0
  0
LINE
  5
807E
330
8013
100
AcDbEntity
  8
0
100
AcDbLine
 10
-15.7838080572573
 20
68.86263764790292
 30
0.0
 11
13.91467675257768
 21
86.00906584738517
 31
0.0
  0
LINE
  5
807F
330
8013
100
AcDbEntity
  8
0
100
AcDbLine
 10
-45.48229286709231
 20
-52.79535291032823
 30
0.0
 11
-45.48229286709229
 21
-68.30878794795502
 31
0.0
  0
LINE
  5
8080
330
8013
100
AcDbEntity
  8
0
100
AcDbLine
 10
12.50046319020458
 20
86.82556242831289
 30
0.0
 11
-17.19802161963039
 21
69.67913422883064
 31
0.0
  0
LINE
  5
8081
330
8013
100
AcDbEntity
  8
0
100
AcDbLine
 10
13.91467675257769
 20
89.27505217109606
 30
0.0
 11
-12.60182754191785
 21
104.5843630634909
 31
0.0
  0
LINE
  5
8082
330
8013
100
AcDbEntity
  8
0
100
AcDbLine
 10
-12.60182754191785
 20
104.5843630634909
 30
0.0
 11
-14.01604110429095
 21
103.7678664825632
 31
0.0
  0
ELLIPSE
  5
8083
330
8013
100
AcDbEntity
  8
0
100
AcDbEllipse
 10
16.38955048673059
 20
-37.4860420179334
 30
0.0
 11
1.249999999999871
 21
2.16506350946117
 31
0.0
210
0.0
220
0.0
230
1.0
 40
0.577350269189626
 41
3.742856870268582
 42
5.681921090500117
  0
ELLIPSE
  5
8084
330
8013
100
AcDbEntity
  8
0
100
AcDbEllipse
 10
17.80376404910368
 20
-38.30253859886112
 30
0.0
 11
-1.25
 21
-2.165063509461096
 31
0.0
210
0.0
220
0.0
230
0.9999999999999998
 40
0.577350269189626
 41
0.0
 42
6.283185307179586
  0
ELLIPSE
  5
8085
330
8013
100
AcDbEntity
  8
0
100
AcDbEllipse
 10
16.38955048673059
 20
-21.15611039937887
 30
0.0
 11
1.249999999999871
 21
2.16506350946117
 31
0.0
210
0.0
220
0.0
230
1.0
 40
0.577350269189626
 41
3.742856870268582
 42
5.681921090500121
  0
ELLIPSE
  5
8086
330
8013
100
AcDbEntity
  8
0
100
AcDbEllipse
 10
17.80376404910368
 20
-21.97260698030659
 30
0.0
 11
-1.25
 21
-2.165063509461096
 31
0.0
210
0.0
220
0.0
230
0.9999999999999998
 40
0.577350269189626
 41
0.0
 42
6.283185307179586
  0
ELLIPSE
  5
8087
330
8013
100
AcDbEntity
  8
0
100
AcDbEllipse
 10
16.38955048673059
 20
-4.826178780824355
 30
0.0
 11
1.249999999999871
 21
2.16506350946117
 31
0.0
210
0.0
220
0.0
230
1.0
 40
0.577350269189626
 41
3.742856870268582
 42
5.681921090500118
  0
ELLIPSE
  5
8088
330
8013
100
AcDbEntity
  8
0
100
AcDbEllipse
 10
17.80376404910368
 20
-5.642675361752078
 30
0.0
 11
-1.25
 21
-2.165063509461096
 31
0.0
210
0.0
220
0.0
230
0.9999999999999998
 40
0.577350269189626
 41
0.0
 42
6.283185307179586
  0
ELLIPSE
  5
8089
330
8013
100
AcDbEntity
  8
0
100
AcDbEllipse
 10
16.38955048673059
 20
11.50375283773016
 30
0.0
 11
1.249999999999871
 21
2.16506350946117
 31
0.0
210
0.0
220
0.0
230
1.0
 40
0.577350269189626
 41
3.742856870268582
 42
5.681921090500118
  0
ELLIPSE
  5
808A
330
8013
100
AcDbEntity
  8
0
100
AcDbEllipse
 10
17.80376404910368
 20
10.68725625680244
 30
0.0
 11
-1.25
 21
-2.165063509461096
 31
0.0
210
0.0
220
0.0
230
0.9999999999999998
 40
0.577350269189626
 41
0.0
 42
6.283185307179586
  0
ELLIPSE
  5
808B
330
8013
100
AcDbEntity
  8
0
100
AcDbEllipse
 10
16.38955048673059
 20
27.83368445628468
 30
0.0
 11
1.249999999999871
 21
2.16506350946117
 31
0.0
210
0.0
220
0.0
230
1.0
 40
0.577350269189626
 41
3.742856870268582
 42
5.681921090500121
  0
ELLIPSE
  5
808C
330
8013
100
AcDbEntity
  8
0
100
AcDbEllipse
 10
17.80376404910368
 20
27.01718787535695
 30
0.0
 11
-1.25
 21
-2.165063509461096
 31
0.0
210
0.0
220
0.0
230
0.9999999999999998
 40
0.577350269189626
 41
0.0
 42
6.283185307179586
  0
ELLIPSE
  5
808D
330
8013
100
AcDbEntity
  8
0
100
AcDbEllipse
 10
-11.89472076073129
 20
-12.9911445901016
 30
0.0
 11
1.249999999999871
 21
2.165063509461171
 31
0.0
210
0.0
220
0.0
230
1.0
 40
0.5773502691896257
 41
3.742856870268582
 42
5.681921090500114
  0
ELLIPSE
  5
808E
330
8013
100
AcDbEntity
  8
0
100
AcDbEllipse
 10
-10.48050719835819
 20
-13.80764117102932
 30
0.0
 11
1.249999999999999
 21
2.165063509461096
 31
0.0
210
0.0
220
0.0
230
1.0
 40
0.5773502691896258
 41
0.0
 42
6.283185307179586
  0
ELLIPSE
  5
808F
330
8013
100
AcDbEntity
  8
0
100
AcDbEllipse
 10
-11.89472076073129
 20
3.338787028452916
 30
0.0
 11
1.249999999999871
 21
2.165063509461171
 31
0.0
210
0.0
220
0.0
230
1.0
 40
0.5773502691896257
 41
3.742856870268582
 42
5.681921090500113
  0
ELLIPSE
  5
8090
330
8013
100
AcDbEntity
  8
0
100
AcDbEllipse
 10
-10.48050719835819
 20
2.522290447525188
 30
0.0
 11
1.249999999999999
 21
2.165063509461096
 31
0.0
210
0.0
220
0.0
230
1.0
 40
0.5773502691896258
 41
0.0
 42
6.283185307179586
  0
ELLIPSE
  5
8091
330
8013
100
AcDbEntity
  8
0
100
AcDbEllipse
 10
-11.89472076073129
 20
19.66871864700744
 30
0.0
 11
1.249999999999871
 21
2.165063509461171
 31
0.0
210
0.0
220
0.0
230
1.0
 40
0.5773502691896257
 41
3.742856870268582
 42
5.68192109050012
  0
ELLIPSE
  5
8092
330
8013
100
AcDbEntity
  8
0
100
AcDbEllipse
 10
-10.48050719835819
 20
18.85222206607971
 30
0.0
 11
1.249999999999999
 21
2.165063509461096
 31
0.0
210
0.0
220
0.0
230
1.0
 40
0.5773502691896258
 41
0.0
 42
6.283185307179586
  0
ELLIPSE
  5
8093
330
8013
100
AcDbEntity
  8
0
100
AcDbEllipse
 10
-11.89472076073129
 20
35.99865026556195
 30
0.0
 11
1.249999999999871
 21
2.165063509461171
 31
0.0
210
0.0
220
0.0
230
1.0
 40
0.5773502691896257
 41
3.742856870268582
 42
5.68192109050012
  0
ELLIPSE
  5
8094
330
8013
100
AcDbEntity
  8
0
100
AcDbEllipse
 10
-10.48050719835819
 20
35.18215368463422
 30
0.0
 11
1.249999999999999
 21
2.165063509461096
 31
0.0
210
0.0
220
0.0
230
1.0
 40
0.5773502691896258
 41
0.0
 42
6.283185307179586
  0
ELLIPSE
  5
8095
330
8013
100
AcDbEntity
  8
0
100
AcDbEllipse
 10
-11.89472076073129
 20
52.32858188411647
 30
0.0
 11
1.249999999999871
 21
2.165063509461171
 31
0.0
210
0.0
220
0.0
230
1.0
 40
0.5773502691896257
 41
3.742856870268582
 42
5.681921090500118
  0
ELLIPSE
  5
8096
330
8013
100
AcDbEntity
  8
0
100
AcDbEllipse
 10
-10.48050719835819
 20
51.51208530318874
 30
0.0
 11
1.249999999999999
 21
2.165063509461096
 31
0.0
210
0.0
220
0.0
230
1.0
 40
0.5773502691896258
 41
0.0
 42
6.283185307179586
  0
ELLIPSE
  5
8097
330
8013
100
AcDbEntity
  8
0
100
AcDbEllipse
 10
-11.89472076073129
 20
68.65851350267099
 30
0.0
 11
1.249999999999871
 21
2.165063509461171
 31
0.0
210
0.0
220
0.0
230
1.0
 40
0.5773502691896257
 41
3.742856870268582
 42
5.681921090500118
  0
ELLIPSE
  5
8098
330
8013
100
AcDbEntity
  8
0
100
AcDbEllipse
 10
-10.48050719835819
 20
67.84201692174327
 30
0.0
 11
1.249999999999999
 21
2.165063509461096
 31
0.0
210
0.0
220
0.0
230
1.0
 40
0.5773502691896258
 41
0.0
 42
6.283185307179586
  0
ENDBLK
  5
8015
330
8013
100
AcDbEntity
  8
0
100
AcDbBlockEnd
  0
ENDSEC
  0
SECTION
  2
ENTITIES
  0
INSERT
  5
8099
330
1F
100
AcDbEntity
  8
0
100
AcDbBlockReference
  2
SAE340_38_2-Front
 10
0.0
 20
0.0
 30
0.0
  0
INSERT
  5
809A
330
1F
100
AcDbEntity
  8
0
100
AcDbBlockReference
  2
SAE340_38_2-Left
 10
106.4
 20
0.0
 30
0.0
  0
INSERT
  5
809B
330
1F
100
AcDbEntity
  8
0
100
AcDbBlockReference
  2
SAE340_38_2-Right
 10
-106.4
 20
0.0
 30
0.0
  0
INSERT
  5
809C
330
1F
100
AcDbEntity
  8
0
100
AcDbBlockReference
  2
SAE340_38_2-Top
 10
0.0
 20
-47.9
 30
0.0
  0
INSERT
  5
809D
330
1F
100
AcDbEntity
  8
0
100
AcDbBlockReference
  2
SAE340_38_2-Bottom
 10
0.0
 20
196.9
 30
0.0
  0
INSERT
  5
809E
330
1F
100
AcDbEntity
  8
0
100
AcDbBlockReference
  2
SAE340_38_2-ISO
 10
151.8822928670924
 20
-152.4843630634909
 30
0.0
  0
MTEXT
  5
809F
330
1F
100
AcDbEntity
  8
0
100
AcDbMText
 10
0.0
 20
-179.8
 30
0.0
 40
13.30000000000001
 41
0.0
 71
     5
 72
     5
  1
SAE340/38/2
 73
     1
 44
1.0
1001
ACAD
1000
MTEXTBEGIN
1070
    73
1070
     1
1070
    44
1040
1.0
1070
    74
1070
     0
1000
MTEXTEND
  0
ENDSEC
  0
SECTION
  2
OBJECTS
  0
DICTIONARY
  5
C
330
0
100
AcDbDictionary
281
     1
  3
ACAD_CIP_PREVIOUS_PRODUCT_INFO
350
216
  3
ACAD_COLOR
350
6B
  3
ACAD_DETAILVIEWSTYLE
350
21B
  3
ACAD_GROUP
350
D
  3
ACAD_LAYOUT
350
1A
  3
ACAD_MATERIAL
350
6A
  3
ACAD_MLEADERSTYLE
350
12D
  3
ACAD_MLINESTYLE
350
17
  3
ACAD_PLOTSETTINGS
350
19
  3
ACAD_PLOTSTYLENAME
350
E
  3
ACAD_SCALELIST
350
10C
  3
ACAD_SECTIONVIEWSTYLE
350
219
  3
ACAD_TABLESTYLE
350
7E
  3
ACAD_VISUALSTYLE
350
EF
  3
ACDB_RECOMPOSE_DATA
350
81A0
  3
AcDbVariableDictionary
350
5E
  3
DWGPROPS
350
81A1
  0
DICTIONARY
  5
80F0
330
8
100
AcDbDictionary
280
     1
281
     1
  0
DICTIONARY
  5
1FF
330
2
100
AcDbDictionary
280
     1
281
     1
  3
ACAD_LAYERSTATES
360
200
  0
DICTIONARY
  5
13C
330
10
100
AcDbDictionary
280
     1
281
     1
  0
DICTIONARY
  5
1CE
330
1F
100
AcDbDictionary
280
     1
281
     1
  3
ACAD_LAYOUTSELFREF
360
80F8
  0
DICTIONARY
  5
80A3
330
D2
100
AcDbDictionary
280
     1
281
     1
  3
ACAD_LAYOUTSELFREF
360
8101
  0
DICTIONARY
  5
80A5
330
D6
100
AcDbDictionary
280
     1
281
     1
  3
ACAD_LAYOUTSELFREF
360
8104
  0
XRECORD
  5
216
102
{ACAD_REACTORS
330
C
102
}
330
C
100
AcDbXrecord
280
     1
300
ACD
300
2021
300
87393ACD_2021_0F
  0
DICTIONARY
  5
6B
102
{ACAD_REACTORS
330
C
102
}
330
C
100
AcDbDictionary
281
     1
  0
DICTIONARY
  5
21B
102
{ACAD_REACTORS
330
C
102
}
330
C
100
AcDbDictionary
281
     1
  3
Metric50
350
21C
  0
DICTIONARY
  5
D
102
{ACAD_REACTORS
330
C
102
}
330
C
100
AcDbDictionary
281
     1
  0
DICTIONARY
  5
1A
102
{ACAD_REACTORS
330
C
102
}
330
C
100
AcDbDictionary
281
     1
  3
Layout1
350
D3
  3
Layout2
350
D7
  3
Model
350
22
  0
DICTIONARY
  5
6A
102
{ACAD_REACTORS
330
C
102
}
330
C
100
AcDbDictionary
281
     1
  3
ByBlock
350
ED
  3
ByLayer
350
EC
  3
Global
350
EE
  0
DICTIONARY
  5
12D
102
{ACAD_REACTORS
330
C
102
}
330
C
100
AcDbDictionary
281
     1
  3
Standard
350
12E
  0
DICTIONARY
  5
17
102
{ACAD_REACTORS
330
C
102
}
330
C
100
AcDbDictionary
281
     1
  3
Standard
350
18
  0
DICTIONARY
  5
19
102
{ACAD_REACTORS
330
C
102
}
330
C
100
AcDbDictionary
281
     1
  0
ACDBDICTIONARYWDFLT
  5
E
102
{ACAD_REACTORS
330
C
102
}
330
C
100
AcDbDictionary
281
     1
  3
Normal
350
F
100
AcDbDictionaryWithDefault
340
F
  0
DICTIONARY
  5
10C
102
{ACAD_REACTORS
330
C
102
}
330
C
100
AcDbDictionary
281
     1
  3
A0
350
10D
  3
A1
350
1BE
  3
A2
350
1BF
  3
A3
350
1C0
  3
A4
350
1C1
  3
A5
350
1C2
  3
A6
350
1C3
  3
A7
350
1C4
  3
A8
350
1C5
  3
A9
350
1C6
  3
B0
350
1C7
  3
B1
350
1C8
  3
B2
350
1C9
  3
B3
350
1CA
  3
B4
350
1CB
  3
B5
350
1CC
  3
B6
350
1CD
  0
DICTIONARY
  5
219
102
{ACAD_REACTORS
330
C
102
}
330
C
100
AcDbDictionary
281
     1
  3
Metric50
350
21A
  0
DICTIONARY
  5
7E
102
{ACAD_REACTORS
330
C
102
}
330
C
100
AcDbDictionary
281
     1
  3
Standard
350
7F
  0
DICTIONARY
  5
EF
102
{ACAD_REACTORS
330
C
102
}
330
C
100
AcDbDictionary
281
     1
  3
2dWireframe
350
F5
  3
Basic
350
F4
  3
Brighten
350
FB
  3
ColorChange
350
FF
  3
Conceptual
350
F8
  3
Dim
350
FA
  3
EdgeColorOff
350
1E6
  3
Facepattern
350
FE
  3
Flat
350
F0
  3
FlatWithEdges
350
F1
  3
Gouraud
350
F2
  3
GouraudWithEdges
350
F3
  3
Hidden
350
F7
  3
JitterOff
350
1E4
  3
Linepattern
350
FD
  3
OverhangOff
350
1E5
  3
Realistic
350
F9
  3
Shaded
350
1F3
  3
Shaded with edges
350
1F2
  3
Shades of Gray
350
1EF
  3
Sketchy
350
1F0
  3
Thicken
350
FC
  3
Wireframe
350
F6
  3
X-Ray
350
1F1
  0
XRECORD
  5
81A0
102
{ACAD_REACTORS
330
C
102
}
330
C
100
AcDbXrecord
280
     1
 90
        1
330
7F
  0
DICTIONARY
  5
5E
102
{ACAD_REACTORS
330
C
102
}
330
C
100
AcDbDictionary
281
     1
  3
CANNOSCALE
350
146
  3
CENTEREXE
350
259
  3
CENTERLTYPEFILE
350
25A
  3
CMLEADERSTYLE
350
145
  3
CTABLESTYLE
350
84
  3
CVIEWDETAILSTYLE
350
227
  3
CVIEWSECTIONSTYLE
350
228
  3
DIMASSOC
350
5F
  3
HIDETEXT
350
63
  3
INDEXCTL
350
814D
  3
LAYEREVAL
350
1AE
  3
LAYERNOTIFY
350
1AF
  3
LIGHTINGUNITS
350
814B
  3
MSLTSCALE
350
814A
  3
PSOLHEIGHT
350
819D
  3
PSOLWIDTH
350
819C
  3
SORTENTS
350
814C
  3
XCLIPFRAME
350
819E
  0
XRECORD
  5
81A1
102
{ACAD_REACTORS
330
C
102
}
330
C
100
AcDbXrecord
280
     1
  1
DWGPROPS COOKIE
  2

  3

  4

  6

  7

  8
truole
  9

300
=
301
=
302
=
303
=
304
=
305
=
306
=
307
=
308
=
309
=
 40
0.0076851851851852
 41
2460398.356956019
 42
2460398.37417824
  1

 90
        0
  0
DICTIONARY
  5
200
102
{ACAD_REACTORS
330
1FF
102
}
330
1FF
100
AcDbDictionary
281
     1
  0
XRECORD
  5
80F8
102
{ACAD_REACTORS
330
1CE
102
}
330
1CE
100
AcDbXrecord
280
     1
340
1F
  0
XRECORD
  5
8101
102
{ACAD_REACTORS
330
80A3
102
}
330
80A3
100
AcDbXrecord
280
     1
340
D2
  0
XRECORD
  5
8104
102
{ACAD_REACTORS
330
80A5
102
}
330
80A5
100
AcDbXrecord
280
     1
340
D6
  0
ACDBDETAILVIEWSTYLE
  5
21C
102
{ACAD_XDICTIONARY
360
81E0
102
}
102
{ACAD_REACTORS
330
21B
102
}
330
21B
100
AcDbModelDocViewStyle
 70
     0
  3
Metric50
290
     0
100
AcDbDetailViewStyle
 70
     0
 71
     0
 90
        3
 71
     1
340
11
 40
5.0
340
0
 40
5.0
300

 40
0.0
280
     1
 71
     2
340
16
 90
       25
 71
     3
340
11
 40
5.0
 90
        0
 40
15.0
 90
        1
300
%<\AcVar ViewDetailId>% (%<\AcVar ViewScale \f "%sn">%)
 71
     4
340
16
 90
       25
340
16
 90
       25
280
     0
  0
LAYOUT
  5
D3
102
{ACAD_XDICTIONARY
360
81A5
102
}
102
{ACAD_REACTORS
330
1A
102
}
330
1A
100
AcDbPlotSettings
  1

  2
C:\Documents and Settings\basas\Application Data\Autodesk\AutoCAD 2005\R16.1\enu\plotters\Default Windows System Printer.pc3
  4

  6

 40
0.0
 41
0.0
 42
0.0
 43
0.0
 44
0.0
 45
0.0
 46
0.0
 47
0.0
 48
0.0
 49
0.0
140
0.0
141
0.0
142
1.0
143
1.0
 70
   688
 72
     0
 73
     0
 74
     5
  7

 75
    16
147
1.0
148
0.0
149
0.0
100
AcDbLayout
  1
Layout1
 70
     1
 71
     1
 10
0.0
 20
0.0
 11
12.0
 21
9.0
 12
0.0
 22
0.0
 32
0.0
 14
0.0
 24
0.0
 34
0.0
 15
0.0
 25
0.0
 35
0.0
146
0.0
 13
0.0
 23
0.0
 33
0.0
 16
1.0
 26
0.0
 36
0.0
 17
0.0
 27
1.0
 37
0.0
 76
     0
330
D2
  0
LAYOUT
  5
D7
102
{ACAD_XDICTIONARY
360
81A7
102
}
102
{ACAD_REACTORS
330
1A
102
}
330
1A
100
AcDbPlotSettings
  1

  2
C:\Documents and Settings\basas\Application Data\Autodesk\AutoCAD 2005\R16.1\enu\plotters\Default Windows System Printer.pc3
  4

  6

 40
0.0
 41
0.0
 42
0.0
 43
0.0
 44
0.0
 45
0.0
 46
0.0
 47
0.0
 48
0.0
 49
0.0
140
0.0
141
0.0
142
1.0
143
1.0
 70
   688
 72
     0
 73
     0
 74
     5
  7

 75
    16
147
1.0
148
0.0
149
0.0
100
AcDbLayout
  1
Layout2
 70
     1
 71
     2
 10
0.0
 20
0.0
 11
12.0
 21
9.0
 12
0.0
 22
0.0
 32
0.0
 14
0.0
 24
0.0
 34
0.0
 15
0.0
 25
0.0
 35
0.0
146
0.0
 13
0.0
 23
0.0
 33
0.0
 16
1.0
 26
0.0
 36
0.0
 17
0.0
 27
1.0
 37
0.0
 76
     0
330
D6
  0
LAYOUT
  5
22
102
{ACAD_XDICTIONARY
360
81A2
102
}
102
{ACAD_REACTORS
330
1A
102
}
330
1A
100
AcDbPlotSettings
  1

  2
none_device
  4
ISO_A4_(210.00_x_297.00_MM)
  6

 40
7.5
 41
20.0
 42
7.5
 43
20.0
 44
210.0
 45
297.0
 46
11.54999923706054
 47
-13.65000009536743
 48
0.0
 49
0.0
140
0.0
141
0.0
142
1.0
143
8.704084754739808
 70
 11952
 72
     1
 73
     0
 74
     0
  7

 75
     0
147
0.1148885871608098
148
0.0
149
0.0
100
AcDbLayout
  1
Model
 70
     1
 71
     0
 10
0.0
 20
0.0
 11
12.0
 21
9.0
 12
0.0
 22
0.0
 32
0.0
 14
0.0
 24
0.0
 34
0.0
 15
0.0
 25
0.0
 35
0.0
146
0.0
 13
0.0
 23
0.0
 33
0.0
 16
1.0
 26
0.0
 36
0.0
 17
0.0
 27
1.0
 37
0.0
 76
     0
330
1F
331
EA
1001
ACAD_PSEXT
1000
None
1000
None
1000
Not applicable
1000
The layout will not be plotted unless a new plotter configuration name is selected.
1070
     0
  0
MATERIAL
  5
ED
102
{ACAD_XDICTIONARY
360
1F9
102
}
102
{ACAD_REACTORS
330
6A
102
}
330
6A
100
AcDbMaterial
  1
ByBlock
  0
MATERIAL
  5
EC
102
{ACAD_XDICTIONARY
360
1F7
102
}
102
{ACAD_REACTORS
330
6A
102
}
330
6A
100
AcDbMaterial
  1
ByLayer
  0
MATERIAL
  5
EE
102
{ACAD_XDICTIONARY
360
173
102
}
102
{ACAD_REACTORS
330
6A
102
}
330
6A
100
AcDbMaterial
  1
Global
 43
0.0007999999797903
 43
0.0
 43
0.0
 43
0.0
 43
0.0
 43
0.0007999999797903
 43
0.0
 43
0.0
 43
0.0
 43
0.0
 43
1.0
 43
0.0
 43
0.0
 43
0.0
 43
0.0
 43
1.0
 49
0.0007999999797903
 49
0.0
 49
0.0
 49
0.0
 49
0.0
 49
0.0007999999797903
 49
0.0
 49
0.0
 49
0.0
 49
0.0
 49
1.0
 49
0.0
 49
0.0
 49
0.0
 49
0.0
 49
1.0
142
0.0007999999797903
142
0.0
142
0.0
142
0.0
142
0.0
142
0.0007999999797903
142
0.0
142
0.0
142
0.0
142
0.0
142
1.0
142
0.0
142
0.0
142
0.0
142
0.0
142
1.0
144
0.0007999999797903
144
0.0
144
0.0
144
0.0
144
0.0
144
0.0007999999797903
144
0.0
144
0.0
144
0.0
144
0.0
144
1.0
144
0.0
144
0.0
144
0.0
144
0.0
144
1.0
1001
ACAD
1070
    -1
1070
     3
1070
     0
1000

1071
        0
1070
     0
  0
MLEADERSTYLE
  5
12E
102
{ACAD_XDICTIONARY
360
81CC
102
}
102
{ACAD_REACTORS
330
12D
102
}
330
12D
100
AcDbMLeaderStyle
170
     2
171
     1
172
     0
 90
        2
 40
0.0
 41
0.0
173
     1
 91
-1056964608
340
14
 92
       -2
290
     1
 42
2.0
291
     1
 43
8.0
  3
Standard
 44
4.0
300

342
11
174
     1
178
     1
175
     1
176
     0
 93
-1056964608
 45
4.0
292
     0
297
     0
 46
4.0
 94
-1056964608
 47
1.0
 49
1.0
140
1.0
293
     1
141
0.0
294
     1
177
     0
142
1.0
295
     0
296
     0
143
3.75
1001
ACAD_MLEADERVER
1070
     2
  0
MLINESTYLE
  5
18
102
{ACAD_REACTORS
330
17
102
}
330
17
100
AcDbMlineStyle
  2
STANDARD
 70
     0
  3

 62
   256
 51
90.0
 52
90.0
 71
     2
 49
0.5
 62
   256
  6
BYLAYER
 49
-0.5
 62
   256
  6
BYLAYER
  0
ACDBPLACEHOLDER
  5
F
102
{ACAD_REACTORS
330
E
102
}
330
E
  0
SCALE
  5
10D
102
{ACAD_REACTORS
330
10C
102
}
330
10C
100
AcDbScale
 70
     0
300
1:1
140
1.0
141
1.0
290
     1
  0
SCALE
  5
1BE
102
{ACAD_REACTORS
330
10C
102
}
330
10C
100
AcDbScale
 70
     0
300
1:2
140
1.0
141
2.0
290
     0
  0
SCALE
  5
1BF
102
{ACAD_REACTORS
330
10C
102
}
330
10C
100
AcDbScale
 70
     0
300
1:4
140
1.0
141
4.0
290
     0
  0
SCALE
  5
1C0
102
{ACAD_REACTORS
330
10C
102
}
330
10C
100
AcDbScale
 70
     0
300
1:5
140
1.0
141
5.0
290
     0
  0
SCALE
  5
1C1
102
{ACAD_REACTORS
330
10C
102
}
330
10C
100
AcDbScale
 70
     0
300
1:8
140
1.0
141
8.0
290
     0
  0
SCALE
  5
1C2
102
{ACAD_REACTORS
330
10C
102
}
330
10C
100
AcDbScale
 70
     0
300
1:10
140
1.0
141
10.0
290
     0
  0
SCALE
  5
1C3
102
{ACAD_REACTORS
330
10C
102
}
330
10C
100
AcDbScale
 70
     0
300
1:16
140
1.0
141
16.0
290
     0
  0
SCALE
  5
1C4
102
{ACAD_REACTORS
330
10C
102
}
330
10C
100
AcDbScale
 70
     0
300
1:20
140
1.0
141
20.0
290
     0
  0
SCALE
  5
1C5
102
{ACAD_REACTORS
330
10C
102
}
330
10C
100
AcDbScale
 70
     0
300
1:30
140
1.0
141
30.0
290
     0
  0
SCALE
  5
1C6
102
{ACAD_REACTORS
330
10C
102
}
330
10C
100
AcDbScale
 70
     0
300
1:40
140
1.0
141
40.0
290
     0
  0
SCALE
  5
1C7
102
{ACAD_REACTORS
330
10C
102
}
330
10C
100
AcDbScale
 70
     0
300
1:50
140
1.0
141
50.0
290
     0
  0
SCALE
  5
1C8
102
{ACAD_REACTORS
330
10C
102
}
330
10C
100
AcDbScale
 70
     0
300
1:100
140
1.0
141
100.0
290
     0
  0
SCALE
  5
1C9
102
{ACAD_REACTORS
330
10C
102
}
330
10C
100
AcDbScale
 70
     0
300
2:1
140
2.0
141
1.0
290
     0
  0
SCALE
  5
1CA
102
{ACAD_REACTORS
330
10C
102
}
330
10C
100
AcDbScale
 70
     0
300
4:1
140
4.0
141
1.0
290
     0
  0
SCALE
  5
1CB
102
{ACAD_REACTORS
330
10C
102
}
330
10C
100
AcDbScale
 70
     0
300
8:1
140
8.0
141
1.0
290
     0
  0
SCALE
  5
1CC
102
{ACAD_REACTORS
330
10C
102
}
330
10C
100
AcDbScale
 70
     0
300
10:1
140
10.0
141
1.0
290
     0
  0
SCALE
  5
1CD
102
{ACAD_REACTORS
330
10C
102
}
330
10C
100
AcDbScale
 70
     0
300
100:1
140
100.0
141
1.0
290
     0
  0
ACDBSECTIONVIEWSTYLE
  5
21A
102
{ACAD_XDICTIONARY
360
81DE
102
}
102
{ACAD_REACTORS
330
219
102
}
330
219
100
AcDbModelDocViewStyle
 70
     0
  3
Metric50
290
     0
100
AcDbSectionViewStyle
 70
     0
 71
     0
 90
      102
 71
     1
340
11
 40
5.0
340
0
340
0
 40
5.0
300
I, O, Q, S, X, Z
 40
10.0
 90
        0
 40
2.5
 90
        0
 71
     2
340
16
 90
       25
340
16
 90
       50
 40
5.0
 40
2.5
 40
5.0
 71
     3
340
11
 40
5.0
 90
        0
 40
15.0
 90
        1
300
%<\AcVar ViewSectionStartId>%-%<\AcVar ViewSectionEndId>% (%<\AcVar ViewScale \f "%sn">%)
 71
     4
300
ANSI31
 40
1.0
 90
        0
290
     0
290
     0
 90
        6
 40
0.0
 40
1.570796326794896
 40
0.2617993877991494
 40
1.308996938995747
 40
-0.2617993877991494
 40
1.832595714594046
  0
TABLESTYLE
  5
7F
102
{ACAD_XDICTIONARY
360
162
102
}
102
{ACAD_REACTORS
330
7E
102
}
330
7E
100
AcDbTableStyle
  3
Standard
 70
     0
 71
     0
 40
1.5
 41
1.5
280
     0
281
     0
  7
Standard
140
4.5
170
     2
 62
     0
 63
     7
283
     0
274
    -2
284
     1
 64
     0
275
    -2
285
     1
 65
     0
276
    -2
286
     1
 66
     0
277
    -2
287
     1
 67
     0
278
    -2
288
     1
 68
     0
279
    -2
289
     1
 69
     0
  7
Standard
140
6.0
170
     5
 62
     0
 63
     7
283
     0
274
    -2
284
     1
 64
     0
275
    -2
285
     1
 65
     0
276
    -2
286
     1
 66
     0
277
    -2
287
     1
 67
     0
278
    -2
288
     1
 68
     0
279
    -2
289
     1
 69
     0
  7
Standard
140
4.5
170
     5
 62
     0
 63
     7
283
     0
274
    -2
284
     1
 64
     0
275
    -2
285
     1
 65
     0
276
    -2
286
     1
 66
     0
277
    -2
287
     1
 67
     0
278
    -2
288
     1
 68
     0
279
    -2
289
     1
 69
     0
  0
VISUALSTYLE
  5
F5
102
{ACAD_XDICTIONARY
360
81B6
102
}
102
{ACAD_REACTORS
330
EF
102
}
330
EF
100
AcDbVisualStyle
  2
2dWireframe
 70
     4
 71
     0
 72
     2
 73
     1
 90
        0
 40
-0.6
 41
-30.0
 62
     5
 63
     7
 74
     1
 91
        4
 64
     7
 65
   257
 75
     1
175
     1
 42
1.0
 92
        0
 66
   257
 43
1.0
 76
     1
 77
     6
 78
     2
 67
     7
 79
     5
170
     0
171
     0
290
     0
174
     0
 93
        1
 44
0.0
173
     0
291
     0
 45
0.0
1001
ACAD
1000
AcDbSavedByObjectVersion
1070
     0
  0
VISUALSTYLE
  5
F4
102
{ACAD_XDICTIONARY
360
81B4
102
}
102
{ACAD_REACTORS
330
EF
102
}
330
EF
100
AcDbVisualStyle
  2
Basic
 70
     7
 71
     1
 72
     0
 73
     1
 90
        0
 40
-0.6
 41
-30.0
 62
     5
 63
     7
 74
     0
 91
        4
 64
     7
 65
   257
 75
     1
175
     1
 42
1.0
 92
        8
 66
     7
 43
1.0
 76
     1
 77
     6
 78
     2
 67
     7
 79
     5
170
     0
171
     0
290
     0
174
     0
 93
        1
 44
0.0
173
     0
291
     1
 45
0.0
1001
ACAD
1000
AcDbSavedByObjectVersion
1070
     0
  0
VISUALSTYLE
  5
FB
102
{ACAD_XDICTIONARY
360
81C2
102
}
102
{ACAD_REACTORS
330
EF
102
}
330
EF
100
AcDbVisualStyle
  2
Brighten
 70
    12
 71
     2
 72
     2
 73
     1
 90
        0
 40
-0.6
 41
-30.0
 62
     5
 63
     7
 74
     1
 91
        4
 64
     7
 65
   257
 75
     1
175
     1
 42
1.0
 92
        8
 66
     7
 43
1.0
 76
     1
 77
     6
 78
     2
 67
     7
 79
     5
170
     0
171
     0
290
     0
174
     0
 93
        1
 44
50.0
173
     0
291
     1
 45
0.0
1001
ACAD
1000
AcDbSavedByObjectVersion
1070
     0
  0
VISUALSTYLE
  5
FF
102
{ACAD_XDICTIONARY
360
81CA
102
}
102
{ACAD_REACTORS
330
EF
102
}
330
EF
100
AcDbVisualStyle
  2
ColorChange
 70
    16
 71
     2
 72
     2
 73
     3
 90
        0
 40
-0.6
 41
-30.0
 62
     5
 63
     8
 74
     1
 91
        4
 64
     7
 65
   257
 75
     1
175
     1
 42
1.0
 92
        8
 66
     8
 43
1.0
 76
     1
 77
     6
 78
     2
 67
     7
 79
     5
170
     0
171
     0
290
     0
174
     0
 93
        1
 44
0.0
173
     0
291
     1
 45
0.0
1001
ACAD
1000
AcDbSavedByObjectVersion
1070
     0
  0
VISUALSTYLE
  5
F8
102
{ACAD_XDICTIONARY
360
81BC
102
}
102
{ACAD_REACTORS
330
EF
102
}
330
EF
100
AcDbVisualStyle
  2
Conceptual
 70
     9
 71
     3
 72
     2
 73
     1
 90
        0
 40
-0.6
 41
-30.0
 62
     5
 63
     7
 74
     2
 91
        2
 64
     7
 65
   257
 75
     1
175
     1
 42
40.0
 92
        8
 66
     7
 43
1.0
 76
     1
 77
     6
 78
     2
 67
     7
 79
     3
170
     0
171
     0
290
     0
174
     0
 93
        1
 44
0.0
173
     0
291
     0
 45
0.0
1001
ACAD
1000
AcDbSavedByObjectVersion
1070
     0
  0
VISUALSTYLE
  5
FA
102
{ACAD_XDICTIONARY
360
81C0
102
}
102
{ACAD_REACTORS
330
EF
102
}
330
EF
100
AcDbVisualStyle
  2
Dim
 70
    11
 71
     2
 72
     2
 73
     1
 90
        0
 40
-0.6
 41
-30.0
 62
     5
 63
     7
 74
     1
 91
        4
 64
     7
 65
   257
 75
     1
175
     1
 42
1.0
 92
        8
 66
     7
 43
1.0
 76
     1
 77
     6
 78
     2
 67
     7
 79
     5
170
     0
171
     0
290
     0
174
     0
 93
        1
 44
-50.0
173
     0
291
     1
 45
0.0
1001
ACAD
1000
AcDbSavedByObjectVersion
1070
     0
  0
VISUALSTYLE
  5
1E6
102
{ACAD_XDICTIONARY
360
81D2
102
}
102
{ACAD_REACTORS
330
EF
102
}
330
EF
100
AcDbVisualStyle
  2
EdgeColorOff
 70
    22
 71
     2
 72
     2
 73
     0
 90
        0
 40
-0.6
 41
-30.0
 62
     5
 63
     7
 74
     1
 91
        4
 64
     7
 65
   257
 75
     1
175
     1
 42
1.0
 92
        8
 66
     7
 43
1.0
 76
     1
 77
     6
 78
     2
 67
     7
 79
     5
170
     0
171
     0
290
     0
174
     0
 93
        1
 44
0.0
173
     0
291
     1
 45
0.0
1001
ACAD
1000
AcDbSavedByObjectVersion
1070
     0
  0
VISUALSTYLE
  5
FE
102
{ACAD_XDICTIONARY
360
81C8
102
}
102
{ACAD_REACTORS
330
EF
102
}
330
EF
100
AcDbVisualStyle
  2
Facepattern
 70
    15
 71
     2
 72
     2
 73
     1
 90
        0
 40
-0.6
 41
-30.0
 62
     5
 63
     7
 74
     1
 91
        4
 64
     7
 65
   257
 75
     1
175
     1
 42
1.0
 92
        8
 66
     7
 43
1.0
 76
     1
 77
     6
 78
     2
 67
     7
 79
     5
170
     0
171
     0
290
     0
174
     0
 93
        1
 44
0.0
173
     0
291
     1
 45
0.0
1001
ACAD
1000
AcDbSavedByObjectVersion
1070
     0
  0
VISUALSTYLE
  5
F0
102
{ACAD_XDICTIONARY
360
81AC
102
}
102
{ACAD_REACTORS
330
EF
102
}
330
EF
100
AcDbVisualStyle
  2
Flat
 70
     0
 71
     2
 72
     1
 73
     1
 90
        2
 40
-0.6
 41
30.0
 62
     5
 63
     7
 74
     0
 91
        0
 64
     7
 65
   257
 75
     1
175
     1
 42
1.0
 92
        8
 66
     7
 43
1.0
 76
     1
 77
     6
 78
     2
 67
     7
 79
     5
170
     0
171
     0
290
     0
174
     0
 93
       13
 44
0.0
173
     0
291
     1
 45
0.0
1001
ACAD
1000
AcDbSavedByObjectVersion
1070
     0
  0
VISUALSTYLE
  5
F1
102
{ACAD_XDICTIONARY
360
81AE
102
}
102
{ACAD_REACTORS
330
EF
102
}
330
EF
100
AcDbVisualStyle
  2
FlatWithEdges
 70
     1
 71
     2
 72
     1
 73
     1
 90
        2
 40
-0.6
 41
30.0
 62
     5
 63
     7
 74
     1
 91
        0
 64
     7
 65
   257
 75
     1
175
     1
 42
1.0
 92
        0
 66
   257
 43
1.0
 76
     1
 77
     6
 78
     2
 67
     7
 79
     5
170
     0
171
     0
290
     0
174
     0
 93
       13
 44
0.0
173
     0
291
     1
 45
0.0
1001
ACAD
1000
AcDbSavedByObjectVersion
1070
     0
  0
VISUALSTYLE
  5
F2
102
{ACAD_XDICTIONARY
360
81B0
102
}
102
{ACAD_REACTORS
330
EF
102
}
330
EF
100
AcDbVisualStyle
  2
Gouraud
 70
     2
 71
     2
 72
     2
 73
     1
 90
        2
 40
-0.6
 41
30.0
 62
     5
 63
     7
 74
     0
 91
        0
 64
     7
 65
   257
 75
     1
175
     1
 42
1.0
 92
        0
 66
     7
 43
1.0
 76
     1
 77
     6
 78
     2
 67
     7
 79
     5
170
     0
171
     0
290
     0
174
     0
 93
       13
 44
0.0
173
     0
291
     1
 45
0.0
1001
ACAD
1000
AcDbSavedByObjectVersion
1070
     0
  0
VISUALSTYLE
  5
F3
102
{ACAD_XDICTIONARY
360
81B2
102
}
102
{ACAD_REACTORS
330
EF
102
}
330
EF
100
AcDbVisualStyle
  2
GouraudWithEdges
 70
     3
 71
     2
 72
     2
 73
     1
 90
        2
 40
-0.6
 41
30.0
 62
     5
 63
     7
 74
     1
 91
        0
 64
     7
 65
   257
 75
     1
175
     1
 42
1.0
 92
        0
 66
   257
 43
1.0
 76
     1
 77
     6
 78
     2
 67
     7
 79
     5
170
     0
171
     0
290
     0
174
     0
 93
       13
 44
0.0
173
     0
291
     1
 45
0.0
1001
ACAD
1000
AcDbSavedByObjectVersion
1070
     0
  0
VISUALSTYLE
  5
F7
102
{ACAD_XDICTIONARY
360
81BA
102
}
102
{ACAD_REACTORS
330
EF
102
}
330
EF
100
AcDbVisualStyle
  2
Hidden
 70
     6
 71
     1
 72
     2
 73
     2
 90
        0
 40
-0.6
 41
-30.0
 62
     5
 63
     7
 74
     2
 91
        2
 64
     7
 65
   257
 75
     2
175
     1
 42
40.0
 92
        0
 66
   257
 43
1.0
 76
     1
 77
     6
 78
     2
 67
     7
 79
     3
170
     0
171
     0
290
     0
174
     0
 93
        1
 44
0.0
173
     0
291
     0
 45
0.0
1001
ACAD
1000
AcDbSavedByObjectVersion
1070
     0
  0
VISUALSTYLE
  5
1E4
102
{ACAD_XDICTIONARY
360
81CE
102
}
102
{ACAD_REACTORS
330
EF
102
}
330
EF
100
AcDbVisualStyle
  2
JitterOff
 70
    20
 71
     2
 72
     2
 73
     0
 90
        0
 40
-0.6
 41
-30.0
 62
     5
 63
     7
 74
     1
 91
        4
 64
     7
 65
   257
 75
     1
175
     1
 42
1.0
 92
       10
 66
     7
 43
1.0
 76
     1
 77
     6
 78
     2
 67
     7
 79
     5
170
     0
171
     0
290
     0
174
     0
 93
        1
 44
0.0
173
     0
291
     1
 45
0.0
1001
ACAD
1000
AcDbSavedByObjectVersion
1070
     0
  0
VISUALSTYLE
  5
FD
102
{ACAD_XDICTIONARY
360
81C6
102
}
102
{ACAD_REACTORS
330
EF
102
}
330
EF
100
AcDbVisualStyle
  2
Linepattern
 70
    14
 71
     2
 72
     2
 73
     1
 90
        0
 40
-0.6
 41
-30.0
 62
     5
 63
     7
 74
     1
 91
        4
 64
     7
 65
   257
 75
     7
175
     7
 42
1.0
 92
        8
 66
     7
 43
1.0
 76
     1
 77
     6
 78
     2
 67
     7
 79
     5
170
     0
171
     0
290
     0
174
     0
 93
        1
 44
0.0
173
     0
291
     1
 45
0.0
1001
ACAD
1000
AcDbSavedByObjectVersion
1070
     0
  0
VISUALSTYLE
  5
1E5
102
{ACAD_XDICTIONARY
360
81D0
102
}
102
{ACAD_REACTORS
330
EF
102
}
330
EF
100
AcDbVisualStyle
  2
OverhangOff
 70
    21
 71
     2
 72
     2
 73
     0
 90
        0
 40
-0.6
 41
-30.0
 62
     5
 63
     7
 74
     1
 91
        4
 64
     7
 65
   257
 75
     1
175
     1
 42
1.0
 92
        9
 66
     7
 43
1.0
 76
     1
 77
     6
 78
     2
 67
     7
 79
     5
170
     0
171
     0
290
     0
174
     0
 93
        1
 44
0.0
173
     0
291
     1
 45
0.0
1001
ACAD
1000
AcDbSavedByObjectVersion
1070
     0
  0
VISUALSTYLE
  5
F9
102
{ACAD_XDICTIONARY
360
81BE
102
}
102
{ACAD_REACTORS
330
EF
102
}
330
EF
100
AcDbVisualStyle
  2
Realistic
 70
     8
 71
     2
 72
     2
 73
     0
 90
        2
 40
-0.6
 41
30.0
 62
     5
 63
     7
 74
     0
 91
        0
 64
     7
 65
   257
 75
     1
175
     1
 42
1.0
 92
        8
 66
   257
 43
1.0
 76
     1
 77
     6
 78
     2
 67
     7
 79
     3
170
     0
171
     0
290
     0
174
     0
 93
       13
 44
0.0
173
     0
291
     0
 45
0.0
1001
ACAD
1000
AcDbSavedByObjectVersion
1070
     0
  0
VISUALSTYLE
  5
1F3
102
{ACAD_XDICTIONARY
360
81DC
102
}
102
{ACAD_REACTORS
330
EF
102
}
330
EF
100
AcDbVisualStyle
  2
Shaded
 70
    27
 71
     2
 72
     2
 73
     1
 90
        2
 40
-0.6
 41
30.0
 62
     5
 63
     7
 74
     0
 91
        4
 64
     7
 65
   257
 75
     1
175
     1
 42
1.0
 92
        8
 66
   257
 43
1.0
 76
     1
 77
     6
 78
     2
 67
     8
 79
     3
170
     0
171
     0
290
     0
174
     0
 93
        5
 44
0.0
173
     0
291
     0
 45
0.0
1001
ACAD
1000
AcDbSavedByObjectVersion
1070
     0
  0
VISUALSTYLE
  5
1F2
102
{ACAD_XDICTIONARY
360
81DA
102
}
102
{ACAD_REACTORS
330
EF
102
}
330
EF
100
AcDbVisualStyle
  2
Shaded with edges
 70
    26
 71
     2
 72
     2
 73
     1
 90
        2
 40
-0.6
 41
30.0
 62
     5
 63
     7
 74
     1
 91
        2
 64
     7
 65
   257
 75
     2
175
     1
 42
1.0
 92
        8
 66
   257
 43
1.0
 76
     1
 77
     6
 78
     2
 67
     7
 79
     3
170
     0
171
     0
290
     0
174
     0
 93
        5
 44
0.0
173
     0
291
     0
 45
0.0
1001
ACAD
1000
AcDbSavedByObjectVersion
1070
     0
  0
VISUALSTYLE
  5
1EF
102
{ACAD_XDICTIONARY
360
81D4
102
}
102
{ACAD_REACTORS
330
EF
102
}
330
EF
100
AcDbVisualStyle
  2
Shades of Gray
 70
    23
 71
     2
 72
     2
 73
     3
 90
        0
 40
-0.6
 41
-30.0
 62
     5
 63
     7
 74
     2
 91
        2
 64
     7
 65
     7
 75
     1
175
     1
 42
40.0
 92
        8
 66
     7
 43
1.0
 76
     1
 77
     6
 78
     2
 67
     7
 79
     3
170
     0
171
     0
290
     0
174
     0
 93
        1
 44
0.0
173
     0
291
     0
 45
0.0
1001
ACAD
1000
AcDbSavedByObjectVersion
1070
     0
  0
VISUALSTYLE
  5
1F0
102
{ACAD_XDICTIONARY
360
81D6
102
}
102
{ACAD_REACTORS
330
EF
102
}
330
EF
100
AcDbVisualStyle
  2
Sketchy
 70
    24
 71
     1
 72
     2
 73
     2
 90
        0
 40
-0.6
 41
-30.0
 62
     5
 63
     7
 74
     2
 91
        2
 64
     7
 65
     7
 75
     1
175
     1
 42
40.0
 92
       11
 66
     7
 43
1.0
 76
     1
 77
     6
 78
     2
 67
     7
 79
     6
170
     0
171
     0
290
     0
174
     0
 93
        1
 44
0.0
173
     0
291
     0
 45
0.0
1001
ACAD
1000
AcDbSavedByObjectVersion
1070
     0
  0
VISUALSTYLE
  5
FC
102
{ACAD_XDICTIONARY
360
81C4
102
}
102
{ACAD_REACTORS
330
EF
102
}
330
EF
100
AcDbVisualStyle
  2
Thicken
 70
    13
 71
     2
 72
     2
 73
     1
 90
        0
 40
-0.6
 41
-30.0
 62
     5
 63
     7
 74
     1
 91
        4
 64
     7
 65
   257
 75
     1
175
     1
 42
1.0
 92
       12
 66
     7
 43
1.0
 76
     1
 77
     6
 78
     2
 67
     7
 79
     5
170
     0
171
     0
290
     0
174
     0
 93
        1
 44
0.0
173
     0
291
     1
 45
0.0
1001
ACAD
1000
AcDbSavedByObjectVersion
1070
     0
  0
VISUALSTYLE
  5
F6
102
{ACAD_XDICTIONARY
360
81B8
102
}
102
{ACAD_REACTORS
330
EF
102
}
330
EF
100
AcDbVisualStyle
  2
Wireframe
 70
     5
 71
     0
 72
     2
 73
     0
 90
        0
 40
-0.6
 41
-30.0
 62
     5
 63
     7
 74
     1
 91
        4
 64
     7
 65
   257
 75
     1
175
     1
 42
1.0
 92
        0
 66
   257
 43
1.0
 76
     1
 77
     6
 78
     2
 67
     7
 79
     3
170
     0
171
     0
290
     0
174
     0
 93
        1
 44
0.0
173
     0
291
     0
 45
0.0
1001
ACAD
1000
AcDbSavedByObjectVersion
1070
     0
  0
VISUALSTYLE
  5
1F1
102
{ACAD_XDICTIONARY
360
81D8
102
}
102
{ACAD_REACTORS
330
EF
102
}
330
EF
100
AcDbVisualStyle
  2
X-Ray
 70
    25
 71
     2
 72
     2
 73
     1
 90
        1
 40
0.5
 41
-30.0
 62
     5
 63
     7
 74
     1
 91
        0
 64
     7
 65
   257
 75
     1
175
     1
 42
1.0
 92
        8
 66
     7
 43
1.0
 76
     1
 77
     6
 78
     2
 67
     7
 79
     3
170
     0
171
     0
290
     0
174
     0
 93
       13
 44
0.0
173
     0
291
     0
 45
0.0
1001
ACAD
1000
AcDbSavedByObjectVersion
1070
     0
  0
DICTIONARYVAR
  5
146
102
{ACAD_REACTORS
330
5E
102
}
330
5E
100
DictionaryVariables
280
     0
  1
1:1
  0
DICTIONARYVAR
  5
259
102
{ACAD_REACTORS
330
5E
102
}
330
5E
100
DictionaryVariables
280
     0
  1
3.500000
  0
DICTIONARYVAR
  5
25A
102
{ACAD_REACTORS
330
5E
102
}
330
5E
100
DictionaryVariables
280
     0
  1
acadiso.lin
  0
DICTIONARYVAR
  5
145
102
{ACAD_REACTORS
330
5E
102
}
330
5E
100
DictionaryVariables
280
     0
  1
STANDARD
  0
DICTIONARYVAR
  5
84
102
{ACAD_REACTORS
330
5E
102
}
330
5E
100
DictionaryVariables
280
     0
  1
STANDARD
  0
DICTIONARYVAR
  5
227
102
{ACAD_REACTORS
330
5E
102
}
330
5E
100
DictionaryVariables
280
     0
  1
Metric50
  0
DICTIONARYVAR
  5
228
102
{ACAD_REACTORS
330
5E
102
}
330
5E
100
DictionaryVariables
280
     0
  1
Metric50
  0
DICTIONARYVAR
  5
5F
102
{ACAD_REACTORS
330
5E
102
}
330
5E
100
DictionaryVariables
280
     0
  1
2
  0
DICTIONARYVAR
  5
63
102
{ACAD_REACTORS
330
5E
102
}
330
5E
100
DictionaryVariables
280
     0
  1
1
  0
DICTIONARYVAR
  5
814D
102
{ACAD_REACTORS
330
5E
102
}
330
5E
100
DictionaryVariables
280
     0
  1
0
  0
DICTIONARYVAR
  5
1AE
102
{ACAD_REACTORS
330
5E
102
}
330
5E
100
DictionaryVariables
280
     0
  1
0
  0
DICTIONARYVAR
  5
1AF
102
{ACAD_REACTORS
330
5E
102
}
330
5E
100
DictionaryVariables
280
     0
  1
0
  0
DICTIONARYVAR
  5
814B
102
{ACAD_REACTORS
330
5E
102
}
330
5E
100
DictionaryVariables
280
     0
  1
2
  0
DICTIONARYVAR
  5
814A
102
{ACAD_REACTORS
330
5E
102
}
330
5E
100
DictionaryVariables
280
     0
  1
1
  0
DICTIONARYVAR
  5
819D
102
{ACAD_REACTORS
330
5E
102
}
330
5E
100
DictionaryVariables
280
     0
  1
80.000000
  0
DICTIONARYVAR
  5
819C
102
{ACAD_REACTORS
330
5E
102
}
330
5E
100
DictionaryVariables
280
     0
  1
5.000000
  0
DICTIONARYVAR
  5
814C
102
{ACAD_REACTORS
330
5E
102
}
330
5E
100
DictionaryVariables
280
     0
  1
127
  0
DICTIONARYVAR
  5
819E
102
{ACAD_REACTORS
330
5E
102
}
330
5E
100
DictionaryVariables
280
     0
  1
2
  0
DICTIONARY
  5
81E0
330
21C
100
AcDbDictionary
280
     1
281
     1
  3
ACAD_XREC_ROUNDTRIP
360
81E1
  0
DICTIONARY
  5
81A5
330
D3
100
AcDbDictionary
280
     1
281
     1
  3
ACAD_XREC_ROUNDTRIP
360
81A6
  0
DICTIONARY
  5
81A7
330
D7
100
AcDbDictionary
280
     1
281
     1
  3
ACAD_XREC_ROUNDTRIP
360
81A8
  0
DICTIONARY
  5
81A2
330
22
100
AcDbDictionary
280
     1
281
     1
  3
ACAD_XREC_ROUNDTRIP
360
81A3
  0
DICTIONARY
  5
1F9
330
ED
100
AcDbDictionary
280
     1
281
     1
  3
ACAD_XREC_ROUNDTRIP
360
81AA
  3
FBXASSET
360
1FA
  0
DICTIONARY
  5
1F7
330
EC
100
AcDbDictionary
280
     1
281
     1
  3
ACAD_XREC_ROUNDTRIP
360
81A9
  3
FBXASSET
360
1F8
  0
DICTIONARY
  5
173
330
EE
100
AcDbDictionary
280
     1
281
     1
  3
ACAD_XREC_ROUNDTRIP
360
81AB
  3
BUMPTILE
360
175
  3
DIFFUSETILE
360
174
  3
FBXASSET
360
1FB
  3
OPACITYTILE
360
176
  3
REFLECTIONTILE
360
177
  0
DICTIONARY
  5
81CC
330
12E
100
AcDbDictionary
280
     1
281
     1
  3
ACAD_XREC_ROUNDTRIP
360
81CD
  0
DICTIONARY
  5
81DE
330
21A
100
AcDbDictionary
280
     1
281
     1
  3
ACAD_XREC_ROUNDTRIP
360
81DF
  0
DICTIONARY
  5
162
330
7F
100
AcDbDictionary
280
     1
281
     1
  3
ACAD_ROUNDTRIP_2008_TABLESTYLE_CELLSTYLEMAP
360
819F
  3
ACAD_XREC_ROUNDTRIP
360
81A4
  0
DICTIONARY
  5
81B6
330
F5
100
AcDbDictionary
280
     1
281
     1
  3
ACAD_XREC_ROUNDTRIP
360
81B7
  0
DICTIONARY
  5
81B4
330
F4
100
AcDbDictionary
280
     1
281
     1
  3
ACAD_XREC_ROUNDTRIP
360
81B5
  0
DICTIONARY
  5
81C2
330
FB
100
AcDbDictionary
280
     1
281
     1
  3
ACAD_XREC_ROUNDTRIP
360
81C3
  0
DICTIONARY
  5
81CA
330
FF
100
AcDbDictionary
280
     1
281
     1
  3
ACAD_XREC_ROUNDTRIP
360
81CB
  0
DICTIONARY
  5
81BC
330
F8
100
AcDbDictionary
280
     1
281
     1
  3
ACAD_XREC_ROUNDTRIP
360
81BD
  0
DICTIONARY
  5
81C0
330
FA
100
AcDbDictionary
280
     1
281
     1
  3
ACAD_XREC_ROUNDTRIP
360
81C1
  0
DICTIONARY
  5
81D2
330
1E6
100
AcDbDictionary
280
     1
281
     1
  3
ACAD_XREC_ROUNDTRIP
360
81D3
  0
DICTIONARY
  5
81C8
330
FE
100
AcDbDictionary
280
     1
281
     1
  3
ACAD_XREC_ROUNDTRIP
360
81C9
  0
DICTIONARY
  5
81AC
330
F0
100
AcDbDictionary
280
     1
281
     1
  3
ACAD_XREC_ROUNDTRIP
360
81AD
  0
DICTIONARY
  5
81AE
330
F1
100
AcDbDictionary
280
     1
281
     1
  3
ACAD_XREC_ROUNDTRIP
360
81AF
  0
DICTIONARY
  5
81B0
330
F2
100
AcDbDictionary
280
     1
281
     1
  3
ACAD_XREC_ROUNDTRIP
360
81B1
  0
DICTIONARY
  5
81B2
330
F3
100
AcDbDictionary
280
     1
281
     1
  3
ACAD_XREC_ROUNDTRIP
360
81B3
  0
DICTIONARY
  5
81BA
330
F7
100
AcDbDictionary
280
     1
281
     1
  3
ACAD_XREC_ROUNDTRIP
360
81BB
  0
DICTIONARY
  5
81CE
330
1E4
100
AcDbDictionary
280
     1
281
     1
  3
ACAD_XREC_ROUNDTRIP
360
81CF
  0
DICTIONARY
  5
81C6
330
FD
100
AcDbDictionary
280
     1
281
     1
  3
ACAD_XREC_ROUNDTRIP
360
81C7
  0
DICTIONARY
  5
81D0
330
1E5
100
AcDbDictionary
280
     1
281
     1
  3
ACAD_XREC_ROUNDTRIP
360
81D1
  0
DICTIONARY
  5
81BE
330
F9
100
AcDbDictionary
280
     1
281
     1
  3
ACAD_XREC_ROUNDTRIP
360
81BF
  0
DICTIONARY
  5
81DC
330
1F3
100
AcDbDictionary
280
     1
281
     1
  3
ACAD_XREC_ROUNDTRIP
360
81DD
  0
DICTIONARY
  5
81DA
330
1F2
100
AcDbDictionary
280
     1
281
     1
  3
ACAD_XREC_ROUNDTRIP
360
81DB
  0
DICTIONARY
  5
81D4
330
1EF
100
AcDbDictionary
280
     1
281
     1
  3
ACAD_XREC_ROUNDTRIP
360
81D5
  0
DICTIONARY
  5
81D6
330
1F0
100
AcDbDictionary
280
     1
281
     1
  3
ACAD_XREC_ROUNDTRIP
360
81D7
  0
DICTIONARY
  5
81C4
330
FC
100
AcDbDictionary
280
     1
281
     1
  3
ACAD_XREC_ROUNDTRIP
360
81C5
  0
DICTIONARY
  5
81B8
330
F6
100
AcDbDictionary
280
     1
281
     1
  3
ACAD_XREC_ROUNDTRIP
360
81B9
  0
DICTIONARY
  5
81D8
330
1F1
100
AcDbDictionary
280
     1
281
     1
  3
ACAD_XREC_ROUNDTRIP
360
81D9
  0
XRECORD
  5
81E1
102
{ACAD_REACTORS
330
81E0
102
}
330
81E0
100
AcDbXrecord
280
     1
102
DISPLAYNAME
  1
Metric50
102
FLAGS
 90
        0
  0
XRECORD
  5
81A6
102
{ACAD_REACTORS
330
81A5
102
}
330
81A5
100
AcDbXrecord
280
     1
102
SHADEPLOT
 70
     0
102
SHADEPLOTRESLEVEL
 70
     2
102
SHADEPLOTCUSTOMDPI
 70
   300
  0
XRECORD
  5
81A8
102
{ACAD_REACTORS
330
81A7
102
}
330
81A7
100
AcDbXrecord
280
     1
102
SHADEPLOT
 70
     0
102
SHADEPLOTRESLEVEL
 70
     2
102
SHADEPLOTCUSTOMDPI
 70
   300
  0
XRECORD
  5
81A3
102
{ACAD_REACTORS
330
81A2
102
}
330
81A2
100
AcDbXrecord
280
     1
102
SHADEPLOT
 70
     0
102
SHADEPLOTRESLEVEL
 70
     2
102
SHADEPLOTCUSTOMDPI
 70
   300
  0
XRECORD
  5
81AA
102
{ACAD_REACTORS
330
1F9
102
}
330
1F9
100
AcDbXrecord
280
     1
102
MATERIAL
148
0.0
149
0.0
149
0.0
 93
        0
 94
       63
282
     0
 72
     1
 77
     1
171
     1
175
     1
179
     1
273
     0
  0
XRECORD
  5
1FA
102
{ACAD_REACTORS
330
1F9
102
}
330
1F9
100
AcDbXrecord
280
     1
 70
     1
 90
429727718
  1
D62C5603-E3A1-4AEA-B7FB-FE5D8D0755AF
310
504B03040A0000080000CC70623B3DEE336E79000000790000001B0000006175746F6465736B2D64657369676E2D7061636B6167652E786D6C3C3F786D6C2076657273696F6E3D22312E302220656E636F64696E673D227574662D3822203F3E3C666F726D6174733E3C666F726D61743E687474703A2F2F736368656D612E
310
6175746F6465736B2E636F6D2F64657369676E2D7061636B6167652F323030393C2F666F726D61743E3C2F666F726D6174733E504B0304140006080800CC70623BD486FD9CA0000000F4000000130000005B436F6E74656E745F54797065735D2E786D6C7D8EC10E82300C865F65E91D8A1E8C310C0EEA1BF002731658846E
310
D98AC1B77784ABF1D8FE5FBFBF75BBCE937A534CCEB38643598122B6FEE978D0B0485F9C41B54DDD7D022595594E1A469170414C76A4D9A4D207E29CF43ECE46F218070CC6BECC4078ACAA135ACF422C856C0E68EA1BF5669944DDD7BCDE7B1F8E415D77AECB980613C2E4AC91FC167A2B244592486606FC29C8FD7F045B9A
310
EF7053A7E60B504B0304140006080800CC70623B853B8169EB0000007C01000008000000636F72652E786D6C8D90416EC3201045AF62CDB6C206821CC7C244919D9CA01740401C94182C03558F5F9C3852BBEB6A467FFE9B197D7EFC9E1EC5975982F5AE035262288C535E5B377690E21535501C055FBC8FBF6C503839990E
310
5619041F179FE64D52DE45E362569DD7661365082642A11EB9E920A89B99642953CC8E702F67A9EE7234257977194EC9EAE275C4EABCCF5EAD5940D4AC6F0E35A568B8F43562CD7046CD199FD07E60174276A7BE677B5EADB0E0D14EEFFB6A31321A0D82627C4084204C3F096B71DD52F6819B16635EADF63F509AF53FA164
310
5DDCD1EDDD17164090FCC8732078B56691CB33A85CD7DCC40F504B0304140006080800CC70623B55019EA25F0000007C00000007000000636E782E786D6C4DCB3B0E80201045D1AD90E915ED2CF8AC45050C11660C8261F98AB1B07AC9C97D42D718D865D3E909258CFD00CCE24AC6E326A164D74DC0B4128928FF32603847
310
2BA13128B1252AC747C6BAB984FC68F0B87FE8960A5C09FE86CFB69FBA01504B0304140006080800CC70623BDBABAAF470010000D40300000C0000006662782F636F72652E786D6CC553D16E823014FD95A6AF4B694182CC941A83FA05FB810A9511A125A5257EFE2E82712ECEB8A7F100CD39F7F69E734AF9FADC366850B6
310
AF8DCE7018308C942E4C59EB2AC3DE1D498AD15A706B8CFB56869196ADCAF00863C12B6B7C374385D14E6907A836A59A41D9F7CA615434B0C8705F7CAA5606D23BA8E84F41278B93AC54100640439DE0BDB320004D43C63716C7C399D30917DCFBBA9CD9BA8469F5B156168B24CED3F7248AC8769F27244EB73B92EED8862C
310
B7F13E0C179B3C8F979C8ECD82BBBABDAA2BAC924E9558448CBD9330242CFA08E3154B5651FCC6D215639C8EE5774DBE2B5F6CF2B5768B68963BB5F5588420E442FC700B1139D4CB01F450C1E918227C2E09DF070D8140C84E1E9AAB8F1340832A9CB13130A5F1376A908D57309505ECF2A0DF179C4E9D30F5B239B87E3823
310
7A79C6F31DE1A8A5AEC08474B03C7837EAE4938639B44E5932B833D2C6B6B279CDC613877FA26EE21F4A2A4C63EC7F29A2F301D1F9F7A0E37D145F504B0304140006080800CC70623B9C113CC27E0000009D0000000B0000006662782F636E782E786D6C4DCCDF0A83201C86E15B91DFB94BFB330DD428C8FB886521330DA7
310
6397BF1A1DECE883878F57749FCDA1B7892F1BBC047A23808C7F84D9FA55424E0BE6803A256208E9EF06C84F9B91703228B1C690F78B66B34CD9A5439DF5CF0BFBF65E35BCA1B8D6A5C6F540381E886698B5741C695F9503EBA150A2F8958E3DC3EA0B504B0304140006080800CC70623B7DF2F77C2A010000120200003100
310
00006662782F41393633353835312D344632462D344230382D423046372D3739314545314133324237412F636F72652E786D6C8D51DB8EC22014FC15C2939B0D2DB4B45643319AE817EC0F6041255A68B86CFCFC856D4D76DF7CE190393373060EDB3DC707F856CE6B6B7A480A0C81328395DA5C7B18C3057510EC3873D686
310
3F34088C18550F330C39BB3A1BA7051AAC09CA84841A2BD5020AEF55806078A44B0FFD7053A328440C89E1EFC52486BBB8AA8214A99D789CF9E05200300FC927E4FB4D5B375D43103D5527440FB843077C5AA3F5861C8F645F5787F59E95B390B318B55CE45AA638FAA2957BD7248B390B7A7CC51F9C124149C82B8C378810
310
84AB2F42B7B8DD56F413775B8C5999E9FF4471926F8AA236A1AE96B8B3CC434E5839373893369E1FAF30EA395917409EB7F26AF8801C171837A4A6AC9C89E9F9C9B1A58BA30FD6A5EF5DDDCF894B9AD9B6A59C957943A9FCAE2FD5BC4DFE03504B0304140006080800CC70623BAD7543B64E01000033030000300000006662
310
782F41393633353835312D344632462D344230382D423046372D3739314545314133324237412F636E782E786D6CD593CD6EC32010845F0571AD6CE3D48AD20813A9873E410FBD12D82434182C7EAAE6EDBB2424CD25871E7B41D6EC30B3FA84F9E67BB2E40B4234DE8DB46F1925E094D7C6ED479AD3AE5951B2113C789FEE
310
6C943839C1488B4C05DF079FE72A69D8C96C13AAD6B8631503449F83828872B949AC57D26200B826A308D316B4064D6E46FCDA41C05550DC9E483A00797BFD207EFB092A45DE9514C1BBD22178396BD39D891265658C238DEA00936C654E5E433CB65A26D9F6EDB5EBC14EBF49A45CB856E66048291F6939A9A81BB5C89177
310
38143CA680F4AA299D66A042CEB3354A2684DC9D8D178FE0D9B8B41CAAD720F880EE7EF93C0C18769E099ECC04D5A102C8049A8A05632F4DDF376CF1DE0F6BB65C2F8627B65A33C6BB62177CEBBDAD973006829F89F22E814B54F4BC2BE347F8AA8F681390B50FA73F804400B5F542E796F19FF974E7F78DB802FE05E20750
310
4B0304140006080800CC70623BE75B7789680500003C100000340000006662782F41393633353835312D344632462D344230382D423046372D3739314545314133324237412F6F626A656374732E786D6CAD575B8F9B3818FD2B887D06C22499CB8AA1CA655245D5B455A356FB305264C061D8018C6C3393D95FBFC7600890
310
A4CD5EF210B0B1BFEBF98E3F7B1FF6596ABC522E1296DF9BAE3D320D9A872C4AF2F8DE2CE5CEBA358D0FBEC719939D65A691938CDE9B6ADAF4BD98B3B2D05311DD91329583D9D5FC0F438434A7A611A644887B5384CF34233629258BA878B12322891DEFF6B66BD70BFB62634E8AE781D082709A4B588AF91C528CDA28B73F
310
1C998EEF39EABBEFA97FBD6A7C7E9553F9D3D79FE442923C3C523610337627CB87ABE99D359D4CC6D6E4FACAB5E6ABF9D2726FC6A3C5F56271377BB88362213924694B38DD99FE47C48627A1E7D49F5A8BB5E1A74C0A599ED3B0F21F1E56366B89112D681E218F0915D0D6F17AD41FBA2A369DCF6335D62ABBD39779D5DDD1
310
11D4D8DE3CBB96B2E04FB8202E41051754A1AA8E8F76B4C6DFE810B580B1547F4B84911149794252234D024EF8BBE963A95AE27B3D310A9D5C215C7960FAEE415ED75694C6AFB17BCACA5D99A60A9AA65F217B0BFC53292ACB92BF283FAD0D3621576592CB5BED907C2FA8E9DF794E35E97BEA31BED21FEB401ABB94C44839
310
DCACBF0E1C5DA8DA5B2F4DFFD32AD86F543D9E565E7056502E157C00AD2671CD534549AB752FCA9CDA00677A313F04E51B22FF19E57B300579E3C97EB29F682D92935CEC18CF901B7B54FD8C51F362B56FC72FE0B3C1EAE335EDCCBF5AEC39ADB17DC238973F804BA5E6F6BFE7AF1FB32E523BE9F3BD571418E3631DCA4D48
310
5250CF639223210A9446CA30052EDF057BD35F8329C1ECD84552BF0DC8D18BE7BCE23BFE6BD960AB4A7DE79923A103BEBD80F911CBAA2C60DB19B01CF164A5583B772EE6D3FFA56666CBCDA74DC97724A48F9A58967497E489C4D979006FD7A05E227A1EBDD0F737C623387A9C844D3709995625106D157315F8B8392CD4E0
310
A0B9A720C4BE9829CEF37EA1E13111214D53925356365ADA634861B52519DD27A00AEB808EAF0628E6F435519D446F45CF2C9CF5214F0A15B2F6D06B79DA3EE3CBF7F56780D2F4E7EF73A0F5E5B02A38D07DC852C6B7C1FBB6664213E0C39E3EBA7FF4E1AD23EA2829407C85E586727488B751B2DB9502BC7B228A3FD68B6E
310
A65A22397E690AA8D158D7E404EC8CDA235CC3B7D1898680131CEC2CDF2638C65196279577750F15884AEE19F94199155B92B13297978469D4F8D358DF0AEF7631E28DC8F0D9F437D5D39A83B2231A1D52D543813A824EF8D44BCFF2FA6A31BD1E8DAD87F1CCB526B3879935BF59CDADD5C37479BB1CDD4CA7B3556B516589
310
EF352754B706114D9C885EC9131DE6EFEB43D99AFE2391C2F958179413D7CFEF6B1B6DB1E7600F00DE6E5C67454A339A4BA2E0FBA85ED26F045D454F463DBFCE484C2F90F2E5E3666003662ED8F755951A7D1BECD5B30B550B2785C8E7320B7292A4838DDA71BBC863ED7613CAF659337A3354231D4FF4A182A54904C2898C
310
98B28C4AD0CE056CCF332A80986E571EE9DBC305BB5FEB7E509220A58D25CF042D712A806AC0AD0C657FDEF80D2D9CEAA2EE4D1C76F60BFE74219A06527D6F82DF6412526107381E55E353090704D085B52408A8913C4ED159D79BDA71BB4BC506F4831350EB6F975CD22D69BF7AC49B91A2C0A9DDA3D5CA36AD20FC478E37
310
E61844E2352865EBCB61A275A65283CAAA9DD27703B4102F5AF51EF5F573B75CBB5AD38BC845F7A49F82A0966A49C2E3EA5EA0ECD326CD965F1DB402C6FA8B51A4658C5C5E2EC9E214602E55810345408596591009A82E7E7FFACA19EEA299B14A0081A705CB3296EBC14CDF658DCD336EA6D1136881AAEB87B81AB9EE53D5
310
F5EB8BC8362082DA24122F98680A4E7930C01A0079749CEA14382A0783E5EBA5A10F8C098456A03D6A4AEB6BB881E2513747552A5DB22C7EDAF83BD5528081A365F7FF06504B0304140006080000CC70623B000000000000000000000000350000006662782F41393633353835312D344632462D344230382D423046372D37
310
39314545314133324237412F76657274696365732E62696E504B0304140006080800CC70623BF270F1330600000004000000360000006662782F41393633353835312D344632462D344230382D423046372D3739314545314133324237412F747269616E676C65732E62696E636660600000504B0304140006080000CC7062
310
3B000000000000000000000000370000006662782F41393633353835312D344632462D344230382D423046372D3739314545314133324237412F617474726962757465732E62696E504B0304140006080800CC70623B08DA0BD19000000041010000360000006662782F41393633353835312D344632462D344230382D4230
310
46372D3739314545314133324237412F6469726563746F72792E786D6C858F410AC3201045AF22B36F53E9A60B35CBEEBAE80D244E44489C6234F4F835464A48035D0DF398FF9F8AF63D0E6CC63039F212F8F9020C7D47C6792B21C5FE7403D62A1188E2E60C98D7234A5830286103A55745067B9D86B8A3CF9C7F90C11DE6
310
07FB144396D7B6A82D282E9A152AD114D5EF2CB866EEE831B8EEA07A7BB5A8D7D61A2BAAEB7FD5F70921FF497D00504B0304140006080800CC70623BEDD1DC58FD000000A00100003B0000006662782F41393633353835312D344632462D344230382D423046372D3739314545314133324237412F7265736F75726365732F
310
636F72652E786D6C8D504B6E833010BD0A9A6D65B00922041947112427E8052C33A156828DFCA97AFC9A40A576D7CDCCE87D344F8F9FBFE667F689CE6B6B3A6039850C8DB2A336530731DC4903D95970676DF82583CCC8193B5861107C72362E3BA4AC096842428D1D7107A5F7182053CF7474E0D507CE32973124857FE48B
310
540F3961CEF244279DE03EB81420DB9EAC1384436FA353E879B1B182C7A8C75DA3C7F453DF353A1075D537A7BA6464B8F535A99AE14A9A2BBD90E350DD183B5CFABE3AF262350B1EF4FC9351399401471025A527C218A1E53BAB5A5AB765F5469B96525EACF23FA6B88CFF34456DC2A1DCE36E360F82A5202F42F062ED2BAD
310
579969AFDD8A6F504B010214000A0000080000CC70623B3DEE336E79000000790000001B00000000000000000000000000000000006175746F6465736B2D64657369676E2D7061636B6167652E786D6C504B01021400140006080800CC70623BD486FD9CA0000000F40000001300000000000000000000000000B20000005B
310
436F6E74656E745F54797065735D2E786D6C504B01021400140006080800CC70623B853B8169EB0000007C010000080000000000000000000000000083010000636F72652E786D6C504B01021400140006080800CC70623B55019EA25F0000007C000000070000000000000000000000000094020000636E782E786D6C504B
310
01021400140006080800CC70623BDBABAAF470010000D40300000C00000000000000000000000000180300006662782F636F72652E786D6C504B01021400140006080800CC70623B9C113CC27E0000009D0000000B00000000000000000000000000B20400006662782F636E782E786D6C504B01021400140006080800CC70
310
623B7DF2F77C2A010000120200003100000000000000000000000000590500006662782F41393633353835312D344632462D344230382D423046372D3739314545314133324237412F636F72652E786D6C504B01021400140006080800CC70623BAD7543B64E010000330300003000000000000000000000000000D2060000
310
6662782F41393633353835312D344632462D344230382D423046372D3739314545314133324237412F636E782E786D6C504B01021400140006080800CC70623BE75B7789680500003C10000034000000000000000000000000006E0800006662782F41393633353835312D344632462D344230382D423046372D3739314545
310
314133324237412F6F626A656374732E786D6C504B01021400140006080000CC70623B0000000000000000000000003500000000000000000000000000280E00006662782F41393633353835312D344632462D344230382D423046372D3739314545314133324237412F76657274696365732E62696E504B01021400140006
310
080800CC70623BF270F133060000000400000036000000000000000000000000007B0E00006662782F41393633353835312D344632462D344230382D423046372D3739314545314133324237412F747269616E676C65732E62696E504B01021400140006080000CC70623B0000000000000000000000003700000000000000
310
000000000000D50E00006662782F41393633353835312D344632462D344230382D423046372D3739314545314133324237412F617474726962757465732E62696E504B01021400140006080800CC70623B08DA0BD1900000004101000036000000000000000000000000002A0F00006662782F41393633353835312D344632
310
462D344230382D423046372D3739314545314133324237412F6469726563746F72792E786D6C504B01021400140006080800CC70623BEDD1DC58FD000000A00100003B000000000000000000000000000E1000006662782F41393633353835312D344632462D344230382D423046372D3739314545314133324237412F7265
310
736F75726365732F636F72652E786D6C504B0506000000000E000E0080040000641100000000
  0
XRECORD
  5
81A9
102
{ACAD_REACTORS
330
1F7
102
}
330
1F7
100
AcDbXrecord
280
     1
102
MATERIAL
148
0.0
149
0.0
149
0.0
 93
        0
 94
       63
282
     0
 72
     1
 77
     1
171
     1
175
     1
179
     1
273
     0
  0
XRECORD
  5
1F8
102
{ACAD_REACTORS
330
1F7
102
}
330
1F7
100
AcDbXrecord
280
     1
 70
     1
 90
429727718
  1
30362254-06B7-45E0-A893-8CFA70E3D6BC
310
504B03040A0000080000CC70623B3DEE336E79000000790000001B0000006175746F6465736B2D64657369676E2D7061636B6167652E786D6C3C3F786D6C2076657273696F6E3D22312E302220656E636F64696E673D227574662D3822203F3E3C666F726D6174733E3C666F726D61743E687474703A2F2F736368656D612E
310
6175746F6465736B2E636F6D2F64657369676E2D7061636B6167652F323030393C2F666F726D61743E3C2F666F726D6174733E504B0304140006080800CC70623BD486FD9CA0000000F4000000130000005B436F6E74656E745F54797065735D2E786D6C7D8EC10E82300C865F65E91D8A1E8C310C0EEA1BF002731658846E
310
D98AC1B77784ABF1D8FE5FBFBF75BBCE937A534CCEB38643598122B6FEE978D0B0485F9C41B54DDD7D022595594E1A469170414C76A4D9A4D207E29CF43ECE46F218070CC6BECC4078ACAA135ACF422C856C0E68EA1BF5669944DDD7BCDE7B1F8E415D77AECB980613C2E4AC91FC167A2B244592486606FC29C8FD7F045B9A
310
EF7053A7E60B504B0304140006080800CC70623B1EC5D7A3EB0000007C01000008000000636F72652E786D6C8D90416EC3201045AF82665B6103C6756C6122AB4D4ED00B204C5C94182C03558F5F9C3852BBEB6A467FFE9B197D71FC9E6FE8CBACC17AD7032D0820E3B41FAD9B7A48F1820F808E52ACDEC75F36404ECDA687
310
4D0629A6D5A76597B477D1B89855E747B38B2A041301E95B6E7A08FAD3CCAA50296647B8168BD2573599823EBB0CA76447F43862C7BCCF5EAC59410E4DDD9C7973C2755553CCCFA4C603E3040F1565ED3B1FDE4E432BCA0D9622DAF9795FAF464533826484B498524CD807E51D79ED187F21878E10516EF63F505AC67F42C9
310
BA58B1FDDD071640D2FCC87D2045B96591CB3DA85CB7DCE40F504B0304140006080800CC70623B55019EA25F0000007C00000007000000636E782E786D6C4DCB3B0E80201045D1AD90E915ED2CF8AC45050C11660C8261F98AB1B07AC9C97D42D718D865D3E909258CFD00CCE24AC6E326A164D74DC0B4128928FF32603847
310
2BA13128B1252AC747C6BAB984FC68F0B87FE8960A5C09FE86CFB69FBA01504B0304140006080800CC70623B8C9102E971010000D40300000C0000006662782F636F72652E786D6CC5535B6E833010BC8AE5DF0A6C08340F1947A84D4ED00B38C6A128602363A31CBFCB234A53A551FA553EC09AD9F5CE8C31DB9E9B1AF5CA
310
7695D1198E428A91D2D214952E33ECDD315861B4E5CC1AE3BE9561A445A3323CC098B3D21ADFCE9034DA29ED00D5A6503328BA4E398C640D8B0C77F253352214DE4145770A5B214FA2546114020D759C75CE8200340D19DE981F0F6746269C33EFAB6266AB02A655C74A59CCF365BADC27CB5D902ED22848F6340DF238A141
310
BE88E2F57B92BFEDF23523433367AE6A2EEAA455C2A902F398D2751045018D3FA264435F3771F242571B4A1919CA6F9A7C5B3CD9E42BED16F12C776AEB308F40C848FC700B1139D4891EF410CEC810227CC6846F8386402064270EF5C5C709A05E49676C024C61FC95EA45ED154CA5211D1FF4FB8291A913A68E9B83EBBB33
310
E2A7673CDE118E5AE8124C0807CB8377834E366998436B950D7A7746DAD846D4CFD978E0F04FD455FC5D49D2D4C6FE9722321F10997F0F32DC47FE05504B0304140006080800CC70623BFFEA85907E0000009D0000000B0000006662782F636E782E786D6C4DCCD10A83201886E15B91FFDC95D95A811AB6F23E625948A6C3
310
E9D8E5AF46073BFAE0E1E365ED67B3E8ADC3CB78C7815C7240DA3DFC64DCC221C519D7805AC182F7F1EF06C88D9BE6703008B6049F9E274D7A1E938DBB5AE3D6131B2589BA0D3D965551E0B2EA732C9B9A624AAEB41E3A557677029960D9AFB4EF11165F504B0304140006080800CC70623B4FEEA4082C0100001202000031
310
0000006662782F39464131463745442D413632322D343644302D413938332D3331353338454246344243312F636F72652E786D6C8D515B6EC32010BC0AE2AB55850DD871ED0813254D72825EC00192A2C460F1A872FC42ED48ED5F7E00CDCECCCEB26C731F6FE05B39AFADE921293004CA082BB5B9F43086336A21D870E6AC
310
0D7F68109861543DCC30E4ECE26C9C164858139409093556AA051CBC570102714B8F1E7AF1A5C6A11862480C7F2DA6415C878B2A4891CA89C7990F2E050073937C42DE1DB7E4F87ED8A36D4329AA9B3D46DBAEAD504556557BD81DEBDD0761E52CE42C462D17B996298E3E6BE59E35C962CE821E1FF18553435012728A7187
310
0841987E927A8D9B35ADDF70BBC6989599FE4F1427F9A4286A132ABAC49D651EF234CD5CE04CDA78BA3DC2A8FB645D00B9DF8B57E215725C60BCA2A463E54C4CE327C7A65E1C7DB02E7DEFCBF594B864C5CA6CDBD49C957943E9FA5D5FBAF336F90F504B0304140006080800CC70623BAD7543B64E01000033030000300000
310
006662782F39464131463745442D413632322D343644302D413938332D3331353338454246344243312F636E782E786D6CD593CD6EC32010845F0571AD6CE3D48AD20813A9873E410FBD12D82434182C7EAAE6EDBB2424CD25871E7B41D6EC30B3FA84F9E67BB2E40B4234DE8DB46F1925E094D7C6ED479AD3AE5951B2113C
310
789FEE6C943839C1488B4C05DF079FE72A69D8C96C13AAD6B8631503449F83828872B949AC57D26200B826A308D316B4064D6E46FCDA41C05550DC9E483A00797BFD207EFB092A45DE9514C1BBD22178396BD39D891265658C238DEA00936C654E5E433CB65A26D9F6EDB5EBC14EBF49A45CB856E66048291F6939A9A81BB5
310
C8917738143CA680F4AA299D66A042CEB3354A2684DC9D8D178FE0D9B8B41CAAD720F880EE7EF93C0C18769E099ECC04D5A102C8049A8A05632F4DDF376CF1DE0F6BB65C2F8627B65A33C6BB62177CEBBDAD973006829F89F22E814B54F4BC2BE347F8AA8F681390B50FA73F804400B5F542E796F19FF974E7F78DB802FE05
310
E207504B0304140006080800CC70623B16AB87BA640500003C100000340000006662782F39464131463745442D413632322D343644302D413938332D3331353338454246344243312F6F626A656374732E786D6CAD575B6FA33818FD2B887DE6924B3BED8A326A92B68A663B534DD4D13E548A0C38942D60649B369D5FBFC7
310
600890A493BDE42160637FD7F31D7FF63E6FB3D478A55C242CBF3247B66B1A340F5994E4F19559CA8D75611A9F7D8F33263BCB4C232719BD32D5B4E97B316765A1A722BA21652A07B3B7B33F0D11D29C9A46981221AE4C113ED38CD8A4942CA2E2C58E882476BCD9DA23BB5ED8171B73523C0F841684D35CC252CCE79062D4
310
468DFA43D7747CCF51DF7D4FFDEB5593E3AB9CCA9FBEFE241792E4E19EB28198C968BAB8199F5D5A67D3E9C49A9E8F47D6EC76B6B0469F26EEFC7C3EBFBCBEB98462213924694B38DD98FE1D62C393D073EA4FADC5DAF04326852CCF6958F90F0F2B9BB5C48816348F90C7840A68EB78EDF68723159BCEE7891A6B95DDE9D3
310
BCEAEEE8086A6C6F9E5D4B59F0175C10A7A0820BAA5055C7473B5AE3CFDD452D602CD5DF12616444529E90D448938013FE6EFA58AA96F85E4F8C42275708571E98FE6827AF6B2B4AE3D7D83D64E5A64C53054DD3AF90BD06FEA9149565C94FCA0F6B834DC85599E4F2423B24DF0B6AFA979E534DFA9E7A4CC6FA631D486393
310
921829879BF5D781A373557BCB85E97FB90DB62B558F8795179C15944B051F40AB495CF35451D26A4727654E6D8033BD98EF82F21D91FF8AF2DD9982BCF1643BDD4EB516C9492E368C67C88DED563FC36D5EACF66DFF057C3658BDBFA69DF9578B3DA735B64F18C7F20770A9D45CFCF7FCF563D6456A277DBEF78A02637CA2
310
43B90A490AEAB94F72244481D24819A6C0E59B606BFA4B3025981DBB48EAB701D97BF19C577CC77F2D1B6C55A9EF3C732474C0B727303F625995056C3B02963D9EAC146BE78EC5FCEC7FA999EBC5EACBAAE41B12D27B4D2C0BBA49F244E2ECDC81B76B502F113D8F5EE8FB1BE3111CDD4FC2AA9B844CAB1288B68AB90A7CDC
310
1C166AB0D3DC5310625FCC14E779BFD0709F8890A629C9292B1B2DED31A4B0DA928CEE135085754027E3018A397D4D5427D15BD1330B677DC8934285AC3DF45A9EB68FF8F2B8FC0A509AFEECFD0FF2DE25CC6047F7214B195F07EFEB9A094D800F7BFAE8FED187B78EA8A3A400F115961BCAD1215E47C966530AF0EE8128FE
310
58CEBB996A8964FFA529A046635D9353B0336A8F700DDF46271A024E70B0B37C9DE01847591E54DED53D54202AB947E4076556AC49C6CA5C9E1226B7F1A7B1BE15DEED62C41B91E1B3E9AFAAA735036547343A925075041DF0A9979E893B391F8FCFA6967B3EFB644DCF6E5CEBFAE272625DCC6FAF3FB93793C5F90CE1EF57
310
407342756B10D1C489E8953CD1617E5CEECAD6F4EF8914CE5D5D504E5C3F1F9736DA62CFC11E00BCDDB8CC8A9466349744C1F75EBDA4DF09BA8A9E8C7A7E9991989E20E5DBDD6A6003664ED8F7A04A8DBE0DF6EAD9B9AA858342E47399053949D2C146EDB85DE4B176BB0965FBAC19BD19AA918E27FA50C1D22402E144464C
310
59462568E704B6E71915404CB72B8FF4EDE184DDAF753F284990D2C6926782963815403548A70C657FDEF80D2D9CEAA2AE4C1C76F60BFE74219A06527D6582DF6412526107381E55E353090704D085B52408D0933C4ED159D79BDA71BB4BC506F4831350EB6F979CD22D69BF7AC49B91A2C0A9DDA3D5CA36AD20FC478E37E6
310
1844E2352865EBCB6EA275A652E3836BE04EFB400BF1A2556F515F1FBB35B2AB35BD889C744FFA1004B5544B121E57F70215746DD2F5E2C1412B602CBF19455AC6C8E5E9922C4E01E65215385004546899059180EAFCF7A707CE7017CD8CDB0410789AB32C63B91E5CEBBBACB17AC6CD347A022D5075FD106377347AAABA7E
310
7D11590744509B44E205134DC1290F06580320F78E537D3D73540E06CB970B431F185308AD40BBD794D6D77003C5A36E8EAA54BA64597CD8F83BD552A080A365F7FF06504B0304140006080000CC70623B000000000000000000000000350000006662782F39464131463745442D413632322D343644302D413938332D3331
310
353338454246344243312F76657274696365732E62696E504B0304140006080800CC70623BF270F1330600000004000000360000006662782F39464131463745442D413632322D343644302D413938332D3331353338454246344243312F747269616E676C65732E62696E636660600000504B0304140006080000CC70623B
310
000000000000000000000000370000006662782F39464131463745442D413632322D343644302D413938332D3331353338454246344243312F617474726962757465732E62696E504B0304140006080800CC70623B08DA0BD19000000041010000360000006662782F39464131463745442D413632322D343644302D413938
310
332D3331353338454246344243312F6469726563746F72792E786D6C858F410AC3201045AF22B36F53E9A60B35CBEEBAE80D244E44489C6234F4F835464A48035D0DF398FF9F8AF63D0E6CC63039F212F8F9020C7D47C6792B21C5FE7403D62A1188E2E60C98D7234A5830286103A55745067B9D86B8A3CF9C7F90C11DE607
310
FB144396D7B6A82D282E9A152AD114D5EF2CB866EEE831B8EEA07A7BB5A8D7D61A2BAAEB7FD5F70921FF497D00504B0304140006080800CC70623B0D6EF93BFE000000A00100003B0000006662782F39464131463745442D413632322D343644302D413938332D3331353338454246344243312F7265736F75726365732F63
310
6F72652E786D6C8D50596E833010BD0A9ADFCA60B334011947A8694ED00B586642AC041B79A97AFC9A40A5F6AF3F33A3B7689E1E3F7DCD8FEC139DD7D6F4C0720A191A65476DA61E62B892236427C19DB5E1970C322367EC618541F0C9D9B8EC90B226A009093576C41D94DE63804C3DD2D18357379C652E63480A7FCF17A9
310
EE72C29CE5894E3AC17D702940B63D59270887DE46A7D0F36263058F518FBB468FE9A7BE6A7420864373B8D4873369AA8691FA421B3294352543C5CAF65C0F6FEF43CB8BD52C78D0F34F46E550061C419494B6843142CB0F5677F4B52BEB177AEC28E5C52AFF638ACBF84F53D42654E51E77B379102C05791282176B5F693D
310
CB4C7BED567C03504B010214000A0000080000CC70623B3DEE336E79000000790000001B00000000000000000000000000000000006175746F6465736B2D64657369676E2D7061636B6167652E786D6C504B01021400140006080800CC70623BD486FD9CA0000000F40000001300000000000000000000000000B20000005B
310
436F6E74656E745F54797065735D2E786D6C504B01021400140006080800CC70623B1EC5D7A3EB0000007C010000080000000000000000000000000083010000636F72652E786D6C504B01021400140006080800CC70623B55019EA25F0000007C000000070000000000000000000000000094020000636E782E786D6C504B
310
01021400140006080800CC70623B8C9102E971010000D40300000C00000000000000000000000000180300006662782F636F72652E786D6C504B01021400140006080800CC70623BFFEA85907E0000009D0000000B00000000000000000000000000B30400006662782F636E782E786D6C504B01021400140006080800CC70
310
623B4FEEA4082C0100001202000031000000000000000000000000005A0500006662782F39464131463745442D413632322D343644302D413938332D3331353338454246344243312F636F72652E786D6C504B01021400140006080800CC70623BAD7543B64E010000330300003000000000000000000000000000D5060000
310
6662782F39464131463745442D413632322D343644302D413938332D3331353338454246344243312F636E782E786D6C504B01021400140006080800CC70623B16AB87BA640500003C1000003400000000000000000000000000710800006662782F39464131463745442D413632322D343644302D413938332D3331353338
310
454246344243312F6F626A656374732E786D6C504B01021400140006080000CC70623B0000000000000000000000003500000000000000000000000000270E00006662782F39464131463745442D413632322D343644302D413938332D3331353338454246344243312F76657274696365732E62696E504B01021400140006
310
080800CC70623BF270F133060000000400000036000000000000000000000000007A0E00006662782F39464131463745442D413632322D343644302D413938332D3331353338454246344243312F747269616E676C65732E62696E504B01021400140006080000CC70623B0000000000000000000000003700000000000000
310
000000000000D40E00006662782F39464131463745442D413632322D343644302D413938332D3331353338454246344243312F617474726962757465732E62696E504B01021400140006080800CC70623B08DA0BD190000000410100003600000000000000000000000000290F00006662782F39464131463745442D413632
310
322D343644302D413938332D3331353338454246344243312F6469726563746F72792E786D6C504B01021400140006080800CC70623B0D6EF93BFE000000A00100003B000000000000000000000000000D1000006662782F39464131463745442D413632322D343644302D413938332D3331353338454246344243312F7265
310
736F75726365732F636F72652E786D6C504B0506000000000E000E0080040000641100000000
  0
XRECORD
  5
81AB
102
{ACAD_REACTORS
330
173
102
}
330
173
100
AcDbXrecord
280
     1
102
MATERIAL
148
0.0
149
0.0
149
0.0
 93
        0
 94
       63
282
     0
 72
     1
 77
     1
171
     1
175
     1
179
     1
273
     0
  0
XRECORD
  5
175
102
{ACAD_REACTORS
330
173
102
}
330
173
100
AcDbXrecord
280
     1
270
     1
271
     1
  0
XRECORD
  5
174
102
{ACAD_REACTORS
330
173
102
}
330
173
100
AcDbXrecord
280
     1
270
     1
271
     1
  0
XRECORD
  5
1FB
102
{ACAD_REACTORS
330
173
102
}
330
173
100
AcDbXrecord
280
     1
 70
     0
 90
1673772943
  1
ECE7A1D2-D628-4531-984C-D00F80459256
310
504B03040A0000080000CC70623B3DEE336E79000000790000001B0000006175746F6465736B2D64657369676E2D7061636B6167652E786D6C3C3F786D6C2076657273696F6E3D22312E302220656E636F64696E673D227574662D3822203F3E3C666F726D6174733E3C666F726D61743E687474703A2F2F736368656D612E
310
6175746F6465736B2E636F6D2F64657369676E2D7061636B6167652F323030393C2F666F726D61743E3C2F666F726D6174733E504B0304140006080800CC70623BD486FD9CA0000000F4000000130000005B436F6E74656E745F54797065735D2E786D6C7D8EC10E82300C865F65E91D8A1E8C310C0EEA1BF002731658846E
310
D98AC1B77784ABF1D8FE5FBFBF75BBCE937A534CCEB38643598122B6FEE978D0B0485F9C41B54DDD7D022595594E1A469170414C76A4D9A4D207E29CF43ECE46F218070CC6BECC4078ACAA135ACF422C856C0E68EA1BF5669944DDD7BCDE7B1F8E415D77AECB980613C2E4AC91FC167A2B244592486606FC29C8FD7F045B9A
310
EF7053A7E60B504B0304140006080800CC70623BD9DDAED0EC0000007C01000008000000636F72652E786D6C8D90416EC3201045AF82665B61836D9CD8C2444DD39CA01740405C94182C03558F5F9C3852BBEB6A467FFE9B197D7EF89E6EE8CB2CC17A37002D0820E394D7D68D03A478C17B4007C117EFE32F1B20272733C0
310
2A83E0E3E2D3BC49CABB685CCCAAF3DA6CA20CC14440EA969B0182FA34932C648AD911AEC52CD5558EA6A0CF2EC329598D1E47ACCEFBECC59A050463A7EA5833865FEBDD0E37353BE3EE8DBDE3F6786A48D375FBF6CC78B9C282473B3DEFABC5C86834888A900E538A49F5419B9EB47DD5BC907D4F082F57FB1F28CDFA9F50
310
B22ED6D5F6EE030B20687EE43E10BC5CB3C8E51E54AE6B6EE207504B0304140006080800CC70623B55019EA25F0000007C00000007000000636E782E786D6C4DCB3B0E80201045D1AD90E915ED2CF8AC45050C11660C8261F98AB1B07AC9C97D42D718D865D3E909258CFD00CCE24AC6E326A164D74DC0B4128928FF326038
310
472BA13128B1252AC747C6BAB984FC68F0B87FE8960A5C09FE86CFB69FBA01504B0304140006080800CC70623BA24EB22D72010000D40300000C0000006662782F636F72652E786D6CC5535B6E833010BC8AE5DF0A6C5E49888CA3A6694ED00B38E05014B091B1518EDFE511A5A9D228FD2A1F60CDEC7A67C6986DCE4D8D7A
310
69BA4AAB0C073EC548AA5C17952A33ECECD15B61B4E1CC686DBF9561A44423333CC098B3D268D7CE50AE9595CA02AA74216750749DB418E5352C32DCE59FB211BE70162ABA93DF8AFC244AE9073ED050C759670D0840D390E18DF9F1706664C23973AE2A66B62A605A75ACA4C13C4976E1364A12EF355A2EBD384AF65EFA96
310
BC7B8BED2EA6719AAE16FB8491A199335B351775B991C2CA02F390D2D40B028F861F41BCA68B7518BFD0D59A524686F29B26D7164F36B94AD9289CE54E6D1DE6010819891F6E21228B3AD1831EC219194284CF98F06DD01008846CC5A1BEF83801D4CBDC6A1303536877A57A513B0953A94FC707FDBE6064EA84A9E3E6E0FA
310
EE8CF0E9198F7784A316AA0413C2C2F2E0ECA0934D1AE6D05A69BCDE9E91D2A611F573361E38FC1375157F5752AE6B6DFE4B11990F88CCBF0719EE23FF02504B0304140006080800CC70623B408A7D3B7C0000009D0000000B0000006662782F636E782E786D6C4DCCD10A83201886E15B91FFDC552A92A0064DBC8F581632
310
D3703A76F9ABD1C18E3E78F878E5F0D9027ABBFCF2292AE86E2D20171F69F6715550CB827B40839639A5F2770314A7CD293819B45C73AAFB45B35BA61ACAA1C1C7E7855C58C15BC331339661262CC762340413D68D77DA5B42298546CBE6573AF60CEB2F504B0304140006080800CC70623B449FB9BD290100001202000031
310
0000006662782F36394639363044362D344446342D343946362D394244322D3234314243333846323333332F636F72652E786D6C8D515B6EC32010BC0AE22B55850D98B871848994463E412FE002495162B07854397EA176A4F62F3F2C9A9D991D587EB84F37F0AD7D30CEF6905418026DA553C65E7A98E219ED203808EE9D
310
8B7F6810D871D23D2C3014FCE25D9A57483A1BB58D19B54EE9151C43D0110279CB971E06F9A5A7B11A53CC8C70ADE6515EC78BAE4895DB992778883E0700CB907242D17643D7E2538BD869608875438BBAE38922CAC8F1BDD90DB4691A5E2F42C153326A951B95E398B3D1FE599322163C9AE9115F7A3D46ADA0A018778810
310
84E907617BDCEE297BC5BB3DC6BC2EF47FA234AB2745C9D8D8D035EE220B50105E2F0DC1954B9FB747187D9F9D8FA0CCDB042D5FA0C015C65B42DF78BD10F3F3B363CB56C7109DCFDFBBB97E662ED92EB62D13BC2E1BCAE5777DB9966D8A1F504B0304140006080800CC70623BAD7543B64E01000033030000300000006662
310
782F36394639363044362D344446342D343946362D394244322D3234314243333846323333332F636E782E786D6CD593CD6EC32010845F0571AD6CE3D48AD20813A9873E410FBD12D82434182C7EAAE6EDBB2424CD25871E7B41D6EC30B3FA84F9E67BB2E40B4234DE8DB46F1925E094D7C6ED479AD3AE5951B2113C789FEE
310
6C943839C1488B4C05DF079FE72A69D8C96C13AAD6B8631503449F83828872B949AC57D26200B826A308D316B4064D6E46FCDA41C05550DC9E483A00797BFD207EFB092A45DE9514C1BBD22178396BD39D891265658C238DEA00936C654E5E433CB65A26D9F6EDB5EBC14EBF49A45CB856E66048291F6939A9A81BB5C89177
310
38143CA680F4AA299D66A042CEB3354A2684DC9D8D178FE0D9B8B41CAAD720F880EE7EF93C0C18769E099ECC04D5A102C8049A8A05632F4DDF376CF1DE0F6BB65C2F8627B65A33C6BB62177CEBBDAD973006829F89F22E814B54F4BC2BE347F8AA8F681390B50FA73F804400B5F542E796F19FF974E7F78DB802FE05E20750
310
4B0304140006080800CC70623B8D05915C650500003B100000340000006662782F36394639363044362D344446342D343946362D394244322D3234314243333846323333332F6F626A656374732E786D6CAD575B6FA33814FE2B887D06429276DA1565D4266D158D3A339A6846FB502932E050B66023DB74D2FDF5FB190C01
310
9276B2973C046C8ECFF53B17071F77456EBD502133CEAE6CDF9DD81665314F32965ED995DA3A17B6F5310C04E7AA47665B8C14F4CAD6DB7618A48257A5D94AE89654B91AEDDEDDFC61C998326A5B714EA4BCB265FC440BE2924AF184CA6737218AB8E976E7FA6E4338649B0A523E8D98964450A6A029F619B8588D52FE7039
310
B1BD30F0F4F730D0FF866AF6369557DB33949F31A9088B0F848DD8CCFCF9F2767A76E99CCDE733677E3EF59D9BBB9BA5E37F984D16E78BC5E5F5ED25044B25C0C96822E8D60EEFE11B91C581D77CEA34368A1F5329E68CD1B8B61F16D63A1B8E092D294B10C78C4A48EB593D192E7DED9BDEE7995E1B91FDEDD3ACEA9FE831
310
6A756F9F7D4D79F4274C90A7A04248AA51D5F8C718DAE06FB2F75AC4796EBE65D22A88A22223B995679120E2D50E41AA49C260C046A35368846B0BECD0DFF3EBEB8AD4F835768F69B9ADF25C43D30E6B646F807FAA64AD59F61715C7A54127C4AACA98BA3006A9D792DAE165E0D59B61A01FB3A9F9D838D2DAE62445C86166
310
F37564E842E7DE6A69879FEEA2DD5AE7E371E1A5E025154AC307D06A03D73EB5978C58FFA4C8E9033066E0F3BD53BEC1F39F91BE7B55103791EDE6BBB991A2046172CB4581D8B893FA674DDA17A77B3B7C413D1B511FD2743BFF8A38F03A658705E3ADF8015C3A3417FF3D7E439FF591DA0B5F18BC20C1B8981957AE6392A3
310
F43C640C01D1A0B4728E2DD4F26DB4B3C3152A252A3B4E913CEC1C72F012782FF88EFF8637AA552DBEF76408E8A8DE9E50F9E1CB3A2DA0DB1B6039A893B56063DC5B3E3FFB5F72E67AB9FEB4AEC496C4F4C1149625DD662C53E89D7BF0F6151A046260D1337DFDC94502430F83B0EE07A130A224BCAD7DAE1D9FB6CD422FF6
310
920702629C4BB9AE79C12F243C6432A6794E18E5552BA56B431AAB5D91317302B2B071E86C3A42B1A02F999E24061403B5D0EB639195DA655DD3EBEAB4FB862DDF579F014AD0E73C22F99E28DA57FB98E75C6CA2D74D53086D600F4786E0FE3144B771A8A7B900F03594DB8A633CBC49B2EDB69228BB479CF863B5E807AAAB
310
23872F6DFEB4129B949CA33823F58830E86D65621E10047D9DB34D862E8EAC3C2ABC2F7B2C40D67CDFE01F5545B92105AF983AC54D93D69E56FB8E797F88913F898A9FEC705D3F9D1B54EC8426FB500D40A03BD0119B06E1B95DDC7EB8F6975367793EBD70E66733DFB9BC982F9CE564727731999F5D4ECFCE3B8D6A4DC2A0
310
6D50FD148437D110834A64C6CDDF57FBACB5C307A2A477DFE4939736CFEF2B175371E0E10CF0DD1D5C15654E0BCA14D1E87DD02FF93782A162C0A3D95F1524A52770F972BF1EE9809D13CE7DD599467F8ECE9ADD85CE85A34CD45355448C64F9E8A031DC2D596ACC6E5DD93D9B82DE2EF5CAF81363A8E47996A0DE24564A79
310
4115AACE09C55E14540231FDA13C319787134EBF34E3A022514E5B4D9E0826E25C02D5805B15ABE1BEF51B26383D445DD9E875EE33FE4C22DA16427D65A3BCA92CA6D28DD01DF5DC53330704308475351050232CCD31583787BA75774AFB06E5070DD0C8EF484E19968C5D83BA5B90B244D31E54D55A372320FE4786B7EA58
310
44E135AA5467CB7EA333A61683CC6A8C3257034C10CF46F40EF9F5BE59BE5BD30C3C72D235E95D10345C1D45445A5F0BB47E46A5EBE5570F9380B5FA629579952296A773720405982B9DE04011506178964401AA8BDF1FBF0A8EAB6861DD6580C0E38217056766716DAEB2D6FA0917D3E4116581EADB879C4E7CFFB11EFACD
310
3D641311495D92C8676CB409A72D18610D803CE8A626049E8EC1887CB5B44CC39883690DDA8399B4B9855B481E7D71D4A9D22F96E5BB73BF5793020C02137BF837504B0304140006080000CC70623B000000000000000000000000350000006662782F36394639363044362D344446342D343946362D394244322D32343142
310
43333846323333332F76657274696365732E62696E504B0304140006080800CC70623BF270F1330600000004000000360000006662782F36394639363044362D344446342D343946362D394244322D3234314243333846323333332F747269616E676C65732E62696E636660600000504B0304140006080000CC70623B0000
310
00000000000000000000370000006662782F36394639363044362D344446342D343946362D394244322D3234314243333846323333332F617474726962757465732E62696E504B0304140006080800CC70623B08DA0BD19000000041010000360000006662782F36394639363044362D344446342D343946362D394244322D
310
3234314243333846323333332F6469726563746F72792E786D6C858F410AC3201045AF22B36F53E9A60B35CBEEBAE80D244E44489C6234F4F835464A48035D0DF398FF9F8AF63D0E6CC63039F212F8F9020C7D47C6792B21C5FE7403D62A1188E2E60C98D7234A5830286103A55745067B9D86B8A3CF9C7F90C11DE607FB14
310
4396D7B6A82D282E9A152AD114D5EF2CB866EEE831B8EEA07A7BB5A8D7D61A2BAAEB7FD5F70921FF497D00504B0304140006080800CC70623BCA768048FE000000A00100003B0000006662782F36394639363044362D344446342D343946362D394244322D3234314243333846323333332F7265736F75726365732F636F72
310
652E786D6C8D50596E833010BD0A9ADFCA60D600328E9AA639412F609909B1126CE4A5EAF16B0295DABFFECC8CDEA2797AECF8353F924FB44E193D409E5248504B332A3D0D10FC95B4901C39B3C6F85F3248B49871801506CE266BC2B243D2688FDA47549B11775038871E12F988C7004EDE7016A9083E2ADC3D5D84BC8B09
310
D33C8D74D471E6BC8D0192EDC93A815B742658898E651BCB59086ADC356A8C3FD555A1055ED7E7E254D615792D0F075295F585746FF53B694EE78A565DD736979A65AB9933AFE69F8CD2A2F038022F28ED489E135A7CE4554F9BBEA85E68DB53CAB255FEC71496F19FA6A0B42F8B3DEE6673C0F318E4497096AD7DC5F52C33
310
EEB55BFE0D504B010214000A0000080000CC70623B3DEE336E79000000790000001B00000000000000000000000000000000006175746F6465736B2D64657369676E2D7061636B6167652E786D6C504B01021400140006080800CC70623BD486FD9CA0000000F40000001300000000000000000000000000B20000005B436F
310
6E74656E745F54797065735D2E786D6C504B01021400140006080800CC70623BD9DDAED0EC0000007C010000080000000000000000000000000083010000636F72652E786D6C504B01021400140006080800CC70623B55019EA25F0000007C000000070000000000000000000000000095020000636E782E786D6C504B0102
310
1400140006080800CC70623BA24EB22D72010000D40300000C00000000000000000000000000190300006662782F636F72652E786D6C504B01021400140006080800CC70623B408A7D3B7C0000009D0000000B00000000000000000000000000B50400006662782F636E782E786D6C504B01021400140006080800CC70623B
310
449FB9BD290100001202000031000000000000000000000000005A0500006662782F36394639363044362D344446342D343946362D394244322D3234314243333846323333332F636F72652E786D6C504B01021400140006080800CC70623BAD7543B64E010000330300003000000000000000000000000000D20600006662
310
782F36394639363044362D344446342D343946362D394244322D3234314243333846323333332F636E782E786D6C504B01021400140006080800CC70623B8D05915C650500003B10000034000000000000000000000000006E0800006662782F36394639363044362D344446342D343946362D394244322D32343142433338
310
46323333332F6F626A656374732E786D6C504B01021400140006080000CC70623B0000000000000000000000003500000000000000000000000000250E00006662782F36394639363044362D344446342D343946362D394244322D3234314243333846323333332F76657274696365732E62696E504B010214001400060808
310
00CC70623BF270F13306000000040000003600000000000000000000000000780E00006662782F36394639363044362D344446342D343946362D394244322D3234314243333846323333332F747269616E676C65732E62696E504B01021400140006080000CC70623B00000000000000000000000037000000000000000000
310
00000000D20E00006662782F36394639363044362D344446342D343946362D394244322D3234314243333846323333332F617474726962757465732E62696E504B01021400140006080800CC70623B08DA0BD190000000410100003600000000000000000000000000270F00006662782F36394639363044362D344446342D
310
343946362D394244322D3234314243333846323333332F6469726563746F72792E786D6C504B01021400140006080800CC70623BCA768048FE000000A00100003B000000000000000000000000000B1000006662782F36394639363044362D344446342D343946362D394244322D3234314243333846323333332F7265736F
310
75726365732F636F72652E786D6C504B0506000000000E000E0080040000621100000000
  0
XRECORD
  5
176
102
{ACAD_REACTORS
330
173
102
}
330
173
100
AcDbXrecord
280
     1
270
     1
271
     1
  0
XRECORD
  5
177
102
{ACAD_REACTORS
330
173
102
}
330
173
100
AcDbXrecord
280
     1
270
     1
271
     1
  0
XRECORD
  5
81CD
102
{ACAD_REACTORS
330
81CC
102
}
330
81CC
100
AcDbXrecord
280
     1
102
ACAD_ROUNDTRIP_2012_MLEADER_STYLE
298
     1
  0
XRECORD
  5
81DF
102
{ACAD_REACTORS
330
81DE
102
}
330
81DE
100
AcDbXrecord
280
     1
102
DISPLAYNAME
  1
Metric50
102
FLAGS
 90
        0
  0
CELLSTYLEMAP
  5
819F
102
{ACAD_REACTORS
330
162
102
}
330
162
100
AcDbCellStyleMap
 90
        3
300
CELLSTYLE
  1
TABLEFORMAT_BEGIN
 90
        5
170
     1
 91
        0
 92
    32768
 62
   257
 93
        1
300
CONTENTFORMAT
  1
CONTENTFORMAT_BEGIN
 90
        0
 91
        0
 92
      512
 93
        0
300

 40
0.0
140
1.0
 94
        5
 62
     0
340
11
144
6.0
309
CONTENTFORMAT_END
171
     1
301
MARGIN
  1
CELLMARGIN_BEGIN
 40
1.5
 40
1.5
 40
1.5
 40
1.5
 40
4.5
 40
4.5
309
CELLMARGIN_END
 94
        6
 95
        1
302
GRIDFORMAT
  1
GRIDFORMAT_BEGIN
 90
        0
 91
        1
 62
     0
 92
       -2
340
14
 93
        0
 40
1.125
309
GRIDFORMAT_END
 95
        2
302
GRIDFORMAT
  1
GRIDFORMAT_BEGIN
 90
        0
 91
        1
 62
     0
 92
       -2
340
14
 93
        0
 40
1.125
309
GRIDFORMAT_END
 95
        4
302
GRIDFORMAT
  1
GRIDFORMAT_BEGIN
 90
        0
 91
        1
 62
     0
 92
       -2
340
14
 93
        0
 40
1.125
309
GRIDFORMAT_END
 95
        8
302
GRIDFORMAT
  1
GRIDFORMAT_BEGIN
 90
        0
 91
        1
 62
     0
 92
       -2
340
14
 93
        0
 40
1.125
309
GRIDFORMAT_END
 95
       16
302
GRIDFORMAT
  1
GRIDFORMAT_BEGIN
 90
        0
 91
        1
 62
     0
 92
       -2
340
14
 93
        0
 40
1.125
309
GRIDFORMAT_END
 95
       32
302
GRIDFORMAT
  1
GRIDFORMAT_BEGIN
 90
        0
 91
        1
 62
     0
 92
       -2
340
14
 93
        0
 40
1.125
309
GRIDFORMAT_END
309
TABLEFORMAT_END
  1
CELLSTYLE_BEGIN
 90
        1
 91
        1
300
_TITLE
309
CELLSTYLE_END
300
CELLSTYLE
  1
TABLEFORMAT_BEGIN
 90
        5
170
     1
 91
        0
 92
        0
 62
   257
 93
        1
300
CONTENTFORMAT
  1
CONTENTFORMAT_BEGIN
 90
        0
 91
        0
 92
      512
 93
        0
300

 40
0.0
140
1.0
 94
        5
 62
     0
340
11
144
4.5
309
CONTENTFORMAT_END
171
     1
301
MARGIN
  1
CELLMARGIN_BEGIN
 40
1.5
 40
1.5
 40
1.5
 40
1.5
 40
4.5
 40
4.5
309
CELLMARGIN_END
 94
        6
 95
        1
302
GRIDFORMAT
  1
GRIDFORMAT_BEGIN
 90
        0
 91
        1
 62
     0
 92
       -2
340
14
 93
        0
 40
1.125
309
GRIDFORMAT_END
 95
        2
302
GRIDFORMAT
  1
GRIDFORMAT_BEGIN
 90
        0
 91
        1
 62
     0
 92
       -2
340
14
 93
        0
 40
1.125
309
GRIDFORMAT_END
 95
        4
302
GRIDFORMAT
  1
GRIDFORMAT_BEGIN
 90
        0
 91
        1
 62
     0
 92
       -2
340
14
 93
        0
 40
1.125
309
GRIDFORMAT_END
 95
        8
302
GRIDFORMAT
  1
GRIDFORMAT_BEGIN
 90
        0
 91
        1
 62
     0
 92
       -2
340
14
 93
        0
 40
1.125
309
GRIDFORMAT_END
 95
       16
302
GRIDFORMAT
  1
GRIDFORMAT_BEGIN
 90
        0
 91
        1
 62
     0
 92
       -2
340
14
 93
        0
 40
1.125
309
GRIDFORMAT_END
 95
       32
302
GRIDFORMAT
  1
GRIDFORMAT_BEGIN
 90
        0
 91
        1
 62
     0
 92
       -2
340
14
 93
        0
 40
1.125
309
GRIDFORMAT_END
309
TABLEFORMAT_END
  1
CELLSTYLE_BEGIN
 90
        2
 91
        1
300
_HEADER
309
CELLSTYLE_END
300
CELLSTYLE
  1
TABLEFORMAT_BEGIN
 90
        5
170
     1
 91
        0
 92
        0
 62
   257
 93
        1
300
CONTENTFORMAT
  1
CONTENTFORMAT_BEGIN
 90
        0
 91
        0
 92
      512
 93
        0
300

 40
0.0
140
1.0
 94
        2
 62
     0
340
11
144
4.5
309
CONTENTFORMAT_END
171
     1
301
MARGIN
  1
CELLMARGIN_BEGIN
 40
1.5
 40
1.5
 40
1.5
 40
1.5
 40
4.5
 40
4.5
309
CELLMARGIN_END
 94
        6
 95
        1
302
GRIDFORMAT
  1
GRIDFORMAT_BEGIN
 90
        0
 91
        1
 62
     0
 92
       -2
340
14
 93
        0
 40
1.125
309
GRIDFORMAT_END
 95
        2
302
GRIDFORMAT
  1
GRIDFORMAT_BEGIN
 90
        0
 91
        1
 62
     0
 92
       -2
340
14
 93
        0
 40
1.125
309
GRIDFORMAT_END
 95
        4
302
GRIDFORMAT
  1
GRIDFORMAT_BEGIN
 90
        0
 91
        1
 62
     0
 92
       -2
340
14
 93
        0
 40
1.125
309
GRIDFORMAT_END
 95
        8
302
GRIDFORMAT
  1
GRIDFORMAT_BEGIN
 90
        0
 91
        1
 62
     0
 92
       -2
340
14
 93
        0
 40
1.125
309
GRIDFORMAT_END
 95
       16
302
GRIDFORMAT
  1
GRIDFORMAT_BEGIN
 90
        0
 91
        1
 62
     0
 92
       -2
340
14
 93
        0
 40
1.125
309
GRIDFORMAT_END
 95
       32
302
GRIDFORMAT
  1
GRIDFORMAT_BEGIN
 90
        0
 91
        1
 62
     0
 92
       -2
340
14
 93
        0
 40
1.125
309
GRIDFORMAT_END
309
TABLEFORMAT_END
  1
CELLSTYLE_BEGIN
 90
        3
 91
        2
300
_DATA
309
CELLSTYLE_END
  0
XRECORD
  5
81A4
102
{ACAD_REACTORS
330
162
102
}
330
162
100
AcDbXrecord
280
     1
102
ACAD_ROUNDTRIP_PRE2007_TABLESTYLE
 90
      512
 91
        0
  1

 92
      512
 93
        0
  2

 94
      512
 95
        0
  3

  0
XRECORD
  5
81B7
102
{ACAD_REACTORS
330
81B6
102
}
330
81B6
100
AcDbXrecord
280
     1
102
RTVSPost2010Prop28
280
     1
102
RTVSPost2010PropOp28
 70
     1
102
RTVSPost2010Prop29
280
     1
102
RTVSPost2010PropOp29
 70
     1
102
RTVSPost2010Prop30
280
     0
102
RTVSPost2010PropOp30
 70
     1
102
RTVSPost2010Prop31
280
     0
102
RTVSPost2010PropOp31
 70
     1
102
RTVSPost2010Prop32
280
     0
102
RTVSPost2010PropOp32
 70
     1
102
RTVSPost2010Prop33
280
     0
102
RTVSPost2010PropOp33
 70
     1
102
RTVSPost2010Prop34
280
     0
102
RTVSPost2010PropOp34
 70
     1
102
RTVSPost2010Prop35
280
     0
102
RTVSPost2010PropOp35
 70
     1
102
RTVSPost2010Prop36
280
     0
102
RTVSPost2010PropOp36
 70
     1
102
RTVSPost2010Prop37
 90
       50
102
RTVSPost2010PropOp37
 70
     1
102
RTVSPost2010Prop38
140
0.0
102
RTVSPost2010PropOp38
 70
     1
102
RTVSPost2010Prop39
140
1.0
102
RTVSPost2010PropOp39
 70
     1
102
RTVSPost2010Prop40
 90
        0
102
RTVSPost2010PropOp40
 70
     1
102
RTVSPost2010Prop41ColorIndex
 90
       18
102
RTVSPost2010Prop41ColorRGB
 90
        0
102
RTVSPost2010PropOp41
 70
     1
102
RTVSPost2010Prop42
 90
       50
102
RTVSPost2010PropOp42
 70
     1
102
RTVSPost2010Prop43
 90
        3
102
RTVSPost2010PropOp43
 70
     1
102
RTVSPost2010Prop44ColorIndex
 90
        5
102
RTVSPost2010Prop44ColorRGB
 90
      255
102
RTVSPost2010PropOp44
 70
     1
102
RTVSPost2010Prop45
280
     0
102
RTVSPost2010PropOp45
 70
     1
102
RTVSPost2010Prop46
 90
       50
102
RTVSPost2010PropOp46
 70
     1
102
RTVSPost2010Prop47
 90
       50
102
RTVSPost2010PropOp47
 70
     1
102
RTVSPost2010Prop48
 90
       50
102
RTVSPost2010PropOp48
 70
     1
102
RTVSPost2010Prop49
280
     0
102
RTVSPost2010PropOp49
 70
     1
102
RTVSPost2010Prop50
 90
       50
102
RTVSPost2010PropOp50
 70
     1
102
RTVSPost2010Prop51ColorIndex
 90
      256
102
RTVSPost2010Prop51ColorRGB
 90
-16777216
102
RTVSPost2010PropOp51
 70
     0
102
RTVSPost2010Prop52
140
1.0
102
RTVSPost2010PropOp52
 70
     0
102
RTVSPost2010Prop53
 90
        2
102
RTVSPost2010PropOp53
 70
     1
102
RTVSPost2010Prop54
  1
strokes_ogs.tif
102
RTVSPost2010PropOp54
 70
     1
102
RTVSPost2010Prop55
280
     0
102
RTVSPost2010PropOp55
 70
     1
102
RTVSPost2010Prop56
140
1.0
102
RTVSPost2010PropOp56
 70
     1
102
RTVSPost2010Prop57
140
1.0
102
RTVSPost2010PropOp57
 70
     1
102
RTVSPropertyOp0
 70
     1
102
RTVSPropertyOp1
 70
     1
102
RTVSPropertyOp2
 70
     1
102
RTVSPropertyOp3
 70
     1
102
RTVSPropertyOp4
 70
     1
102
RTVSPropertyOp5
 70
     1
102
RTVSPropertyOp6
 70
     1
102
RTVSPropertyOp7
 70
     1
102
RTVSPropertyOp8
 70
     1
102
RTVSPropertyOp9
 70
     1
102
RTVSPropertyOp10
 70
     1
102
RTVSPropertyOp11
 70
     1
102
RTVSPropertyOp12
 70
     1
102
RTVSPropertyOp13
 70
     1
102
RTVSPropertyOp14
 70
     1
102
RTVSPropertyOp15
 70
     1
102
RTVSPropertyOp16
 70
     1
102
RTVSPropertyOp17
 70
     1
102
RTVSPropertyOp18
 70
     1
102
RTVSPropertyOp19
 70
     1
102
RTVSPropertyOp20
 70
     1
102
RTVSPropertyOp21
 70
     1
102
RTVSPropertyOp22
 70
     1
102
RTVSPropertyOp23
 70
     1
102
RTVSPropertyOp24
 70
     1
102
RTVSPropertyOp25
 70
     1
102
RTVSPropertyOp26
 70
     1
102
RTVSPropertyOp27
 70
     1
102
RTVSPropertyOp28
 70
     1
102
RTVSPropertyOp29
 70
     1
102
RTVSPropertyOp30
 70
     1
102
RTVSPropertyOp31
 70
     1
102
RTVSPropertyOp32
 70
     1
102
RTVSPropertyOp33
 70
     1
102
RTVSPropertyOp34
 70
     1
102
RTVSPropertyOp35
 70
     1
102
RTVSPropertyOp36
 70
     1
102
RTVSPropertyOp37
 70
     1
102
RTVSPropertyOp38
 70
     1
102
RTVSPropertyOp39
 70
     1
102
RTVSPropertyOp40
 70
     1
102
RTVSPropertyOp41
 70
     1
102
RTVSPropertyOp42
 70
     1
102
RTVSPropertyOp43
 70
     1
102
RTVSPropertyOp44
 70
     1
102
RTVSPropertyOp45
 70
     1
102
RTVSPropertyOp46
 70
     1
102
RTVSPropertyOp47
 70
     1
102
RTVSPropertyOp48
 70
     1
102
RTVSPropertyOp49
 70
     1
102
RTVSPropertyOp50
 70
     1
102
RTVSPropertyOp51
 70
     0
102
RTVSPropertyOp52
 70
     0
102
RTVSPropertyOp53
 70
     1
102
RTVSPropertyOp54
 70
     1
102
RTVSPropertyOp55
 70
     1
102
RTVSPropertyOp56
 70
     1
102
RTVSPropertyOp57
 70
     1
102
RTVSPropertyOp58
 70
     1
102
RTVSPropertyOp59
 70
     1
102
RTVSPropertyOp60
 70
     1
102
RTVSPropertyOp61
 70
     1
102
RTVSPropertyOp62
 70
     1
  0
XRECORD
  5
81B5
102
{ACAD_REACTORS
330
81B4
102
}
330
81B4
100
AcDbXrecord
280
     1
102
RTVSPost2010Prop28
280
     0
102
RTVSPost2010PropOp28
 70
     1
102
RTVSPost2010Prop29
280
     1
102
RTVSPost2010PropOp29
 70
     1
102
RTVSPost2010Prop30
280
     1
102
RTVSPost2010PropOp30
 70
     1
102
RTVSPost2010Prop31
280
     0
102
RTVSPost2010PropOp31
 70
     1
102
RTVSPost2010Prop32
280
     0
102
RTVSPost2010PropOp32
 70
     1
102
RTVSPost2010Prop33
280
     0
102
RTVSPost2010PropOp33
 70
     1
102
RTVSPost2010Prop34
280
     0
102
RTVSPost2010PropOp34
 70
     1
102
RTVSPost2010Prop35
280
     0
102
RTVSPost2010PropOp35
 70
     1
102
RTVSPost2010Prop36
280
     0
102
RTVSPost2010PropOp36
 70
     1
102
RTVSPost2010Prop37
 90
       50
102
RTVSPost2010PropOp37
 70
     1
102
RTVSPost2010Prop38
140
0.0
102
RTVSPost2010PropOp38
 70
     1
102
RTVSPost2010Prop39
140
1.0
102
RTVSPost2010PropOp39
 70
     1
102
RTVSPost2010Prop40
 90
        0
102
RTVSPost2010PropOp40
 70
     1
102
RTVSPost2010Prop41ColorIndex
 90
       18
102
RTVSPost2010Prop41ColorRGB
 90
        0
102
RTVSPost2010PropOp41
 70
     1
102
RTVSPost2010Prop42
 90
       50
102
RTVSPost2010PropOp42
 70
     1
102
RTVSPost2010Prop43
 90
        3
102
RTVSPost2010PropOp43
 70
     1
102
RTVSPost2010Prop44ColorIndex
 90
        5
102
RTVSPost2010Prop44ColorRGB
 90
      255
102
RTVSPost2010PropOp44
 70
     1
102
RTVSPost2010Prop45
280
     0
102
RTVSPost2010PropOp45
 70
     1
102
RTVSPost2010Prop46
 90
       50
102
RTVSPost2010PropOp46
 70
     1
102
RTVSPost2010Prop47
 90
       50
102
RTVSPost2010PropOp47
 70
     1
102
RTVSPost2010Prop48
 90
       50
102
RTVSPost2010PropOp48
 70
     1
102
RTVSPost2010Prop49
280
     0
102
RTVSPost2010PropOp49
 70
     1
102
RTVSPost2010Prop50
 90
       50
102
RTVSPost2010PropOp50
 70
     1
102
RTVSPost2010Prop51ColorIndex
 90
      256
102
RTVSPost2010Prop51ColorRGB
 90
-16777216
102
RTVSPost2010PropOp51
 70
     0
102
RTVSPost2010Prop52
140
1.0
102
RTVSPost2010PropOp52
 70
     0
102
RTVSPost2010Prop53
 90
        2
102
RTVSPost2010PropOp53
 70
     1
102
RTVSPost2010Prop54
  1
strokes_ogs.tif
102
RTVSPost2010PropOp54
 70
     1
102
RTVSPost2010Prop55
280
     0
102
RTVSPost2010PropOp55
 70
     1
102
RTVSPost2010Prop56
140
1.0
102
RTVSPost2010PropOp56
 70
     1
102
RTVSPost2010Prop57
140
1.0
102
RTVSPost2010PropOp57
 70
     1
102
RTVSPropertyOp0
 70
     1
102
RTVSPropertyOp1
 70
     1
102
RTVSPropertyOp2
 70
     1
102
RTVSPropertyOp3
 70
     1
102
RTVSPropertyOp4
 70
     1
102
RTVSPropertyOp5
 70
     1
102
RTVSPropertyOp6
 70
     1
102
RTVSPropertyOp7
 70
     1
102
RTVSPropertyOp8
 70
     1
102
RTVSPropertyOp9
 70
     1
102
RTVSPropertyOp10
 70
     1
102
RTVSPropertyOp11
 70
     1
102
RTVSPropertyOp12
 70
     1
102
RTVSPropertyOp13
 70
     1
102
RTVSPropertyOp14
 70
     1
102
RTVSPropertyOp15
 70
     1
102
RTVSPropertyOp16
 70
     1
102
RTVSPropertyOp17
 70
     1
102
RTVSPropertyOp18
 70
     1
102
RTVSPropertyOp19
 70
     1
102
RTVSPropertyOp20
 70
     1
102
RTVSPropertyOp21
 70
     1
102
RTVSPropertyOp22
 70
     1
102
RTVSPropertyOp23
 70
     1
102
RTVSPropertyOp24
 70
     1
102
RTVSPropertyOp25
 70
     1
102
RTVSPropertyOp26
 70
     1
102
RTVSPropertyOp27
 70
     1
102
RTVSPropertyOp28
 70
     1
102
RTVSPropertyOp29
 70
     1
102
RTVSPropertyOp30
 70
     1
102
RTVSPropertyOp31
 70
     1
102
RTVSPropertyOp32
 70
     1
102
RTVSPropertyOp33
 70
     1
102
RTVSPropertyOp34
 70
     1
102
RTVSPropertyOp35
 70
     1
102
RTVSPropertyOp36
 70
     1
102
RTVSPropertyOp37
 70
     1
102
RTVSPropertyOp38
 70
     1
102
RTVSPropertyOp39
 70
     1
102
RTVSPropertyOp40
 70
     1
102
RTVSPropertyOp41
 70
     1
102
RTVSPropertyOp42
 70
     1
102
RTVSPropertyOp43
 70
     1
102
RTVSPropertyOp44
 70
     1
102
RTVSPropertyOp45
 70
     1
102
RTVSPropertyOp46
 70
     1
102
RTVSPropertyOp47
 70
     1
102
RTVSPropertyOp48
 70
     1
102
RTVSPropertyOp49
 70
     1
102
RTVSPropertyOp50
 70
     1
102
RTVSPropertyOp51
 70
     0
102
RTVSPropertyOp52
 70
     0
102
RTVSPropertyOp53
 70
     1
102
RTVSPropertyOp54
 70
     1
102
RTVSPropertyOp55
 70
     1
102
RTVSPropertyOp56
 70
     1
102
RTVSPropertyOp57
 70
     1
102
RTVSPropertyOp58
 70
     1
102
RTVSPropertyOp59
 70
     1
102
RTVSPropertyOp60
 70
     1
102
RTVSPropertyOp61
 70
     1
102
RTVSPropertyOp62
 70
     1
  0
XRECORD
  5
81C3
102
{ACAD_REACTORS
330
81C2
102
}
330
81C2
100
AcDbXrecord
280
     1
102
RTVSPost2010Prop28
280
     0
102
RTVSPost2010PropOp28
 70
     1
102
RTVSPost2010Prop29
280
     1
102
RTVSPost2010PropOp29
 70
     1
102
RTVSPost2010Prop30
280
     1
102
RTVSPost2010PropOp30
 70
     1
102
RTVSPost2010Prop31
280
     0
102
RTVSPost2010PropOp31
 70
     1
102
RTVSPost2010Prop32
280
     0
102
RTVSPost2010PropOp32
 70
     1
102
RTVSPost2010Prop33
280
     0
102
RTVSPost2010PropOp33
 70
     1
102
RTVSPost2010Prop34
280
     0
102
RTVSPost2010PropOp34
 70
     1
102
RTVSPost2010Prop35
280
     0
102
RTVSPost2010PropOp35
 70
     1
102
RTVSPost2010Prop36
280
     0
102
RTVSPost2010PropOp36
 70
     1
102
RTVSPost2010Prop37
 90
       50
102
RTVSPost2010PropOp37
 70
     1
102
RTVSPost2010Prop38
140
0.0
102
RTVSPost2010PropOp38
 70
     1
102
RTVSPost2010Prop39
140
1.0
102
RTVSPost2010PropOp39
 70
     1
102
RTVSPost2010Prop40
 90
        0
102
RTVSPost2010PropOp40
 70
     1
102
RTVSPost2010Prop41ColorIndex
 90
       18
102
RTVSPost2010Prop41ColorRGB
 90
        0
102
RTVSPost2010PropOp41
 70
     1
102
RTVSPost2010Prop42
 90
       50
102
RTVSPost2010PropOp42
 70
     1
102
RTVSPost2010Prop43
 90
        3
102
RTVSPost2010PropOp43
 70
     1
102
RTVSPost2010Prop44ColorIndex
 90
        5
102
RTVSPost2010Prop44ColorRGB
 90
      255
102
RTVSPost2010PropOp44
 70
     1
102
RTVSPost2010Prop45
280
     0
102
RTVSPost2010PropOp45
 70
     1
102
RTVSPost2010Prop46
 90
       50
102
RTVSPost2010PropOp46
 70
     1
102
RTVSPost2010Prop47
 90
       50
102
RTVSPost2010PropOp47
 70
     1
102
RTVSPost2010Prop48
 90
       50
102
RTVSPost2010PropOp48
 70
     1
102
RTVSPost2010Prop49
280
     0
102
RTVSPost2010PropOp49
 70
     1
102
RTVSPost2010Prop50
 90
       50
102
RTVSPost2010PropOp50
 70
     1
102
RTVSPost2010Prop51ColorIndex
 90
      256
102
RTVSPost2010Prop51ColorRGB
 90
-16777216
102
RTVSPost2010PropOp51
 70
     0
102
RTVSPost2010Prop52
140
1.0
102
RTVSPost2010PropOp52
 70
     0
102
RTVSPost2010Prop53
 90
        2
102
RTVSPost2010PropOp53
 70
     1
102
RTVSPost2010Prop54
  1
strokes_ogs.tif
102
RTVSPost2010PropOp54
 70
     1
102
RTVSPost2010Prop55
280
     0
102
RTVSPost2010PropOp55
 70
     1
102
RTVSPost2010Prop56
140
1.0
102
RTVSPost2010PropOp56
 70
     1
102
RTVSPost2010Prop57
140
1.0
102
RTVSPost2010PropOp57
 70
     1
102
RTVSPropertyOp0
 70
     1
102
RTVSPropertyOp1
 70
     1
102
RTVSPropertyOp2
 70
     1
102
RTVSPropertyOp3
 70
     1
102
RTVSPropertyOp4
 70
     1
102
RTVSPropertyOp5
 70
     1
102
RTVSPropertyOp6
 70
     1
102
RTVSPropertyOp7
 70
     1
102
RTVSPropertyOp8
 70
     1
102
RTVSPropertyOp9
 70
     1
102
RTVSPropertyOp10
 70
     1
102
RTVSPropertyOp11
 70
     1
102
RTVSPropertyOp12
 70
     1
102
RTVSPropertyOp13
 70
     1
102
RTVSPropertyOp14
 70
     1
102
RTVSPropertyOp15
 70
     1
102
RTVSPropertyOp16
 70
     1
102
RTVSPropertyOp17
 70
     1
102
RTVSPropertyOp18
 70
     1
102
RTVSPropertyOp19
 70
     1
102
RTVSPropertyOp20
 70
     1
102
RTVSPropertyOp21
 70
     1
102
RTVSPropertyOp22
 70
     1
102
RTVSPropertyOp23
 70
     1
102
RTVSPropertyOp24
 70
     1
102
RTVSPropertyOp25
 70
     1
102
RTVSPropertyOp26
 70
     1
102
RTVSPropertyOp27
 70
     1
102
RTVSPropertyOp28
 70
     1
102
RTVSPropertyOp29
 70
     1
102
RTVSPropertyOp30
 70
     1
102
RTVSPropertyOp31
 70
     1
102
RTVSPropertyOp32
 70
     1
102
RTVSPropertyOp33
 70
     1
102
RTVSPropertyOp34
 70
     1
102
RTVSPropertyOp35
 70
     1
102
RTVSPropertyOp36
 70
     1
102
RTVSPropertyOp37
 70
     1
102
RTVSPropertyOp38
 70
     1
102
RTVSPropertyOp39
 70
     1
102
RTVSPropertyOp40
 70
     1
102
RTVSPropertyOp41
 70
     1
102
RTVSPropertyOp42
 70
     1
102
RTVSPropertyOp43
 70
     1
102
RTVSPropertyOp44
 70
     1
102
RTVSPropertyOp45
 70
     1
102
RTVSPropertyOp46
 70
     1
102
RTVSPropertyOp47
 70
     1
102
RTVSPropertyOp48
 70
     1
102
RTVSPropertyOp49
 70
     1
102
RTVSPropertyOp50
 70
     1
102
RTVSPropertyOp51
 70
     0
102
RTVSPropertyOp52
 70
     0
102
RTVSPropertyOp53
 70
     1
102
RTVSPropertyOp54
 70
     1
102
RTVSPropertyOp55
 70
     1
102
RTVSPropertyOp56
 70
     1
102
RTVSPropertyOp57
 70
     1
102
RTVSPropertyOp58
 70
     1
102
RTVSPropertyOp59
 70
     1
102
RTVSPropertyOp60
 70
     1
102
RTVSPropertyOp61
 70
     1
102
RTVSPropertyOp62
 70
     1
  0
XRECORD
  5
81CB
102
{ACAD_REACTORS
330
81CA
102
}
330
81CA
100
AcDbXrecord
280
     1
102
RTVSPost2010Prop28
280
     0
102
RTVSPost2010PropOp28
 70
     1
102
RTVSPost2010Prop29
280
     1
102
RTVSPost2010PropOp29
 70
     1
102
RTVSPost2010Prop30
280
     1
102
RTVSPost2010PropOp30
 70
     1
102
RTVSPost2010Prop31
280
     0
102
RTVSPost2010PropOp31
 70
     1
102
RTVSPost2010Prop32
280
     0
102
RTVSPost2010PropOp32
 70
     1
102
RTVSPost2010Prop33
280
     0
102
RTVSPost2010PropOp33
 70
     1
102
RTVSPost2010Prop34
280
     0
102
RTVSPost2010PropOp34
 70
     1
102
RTVSPost2010Prop35
280
     0
102
RTVSPost2010PropOp35
 70
     1
102
RTVSPost2010Prop36
280
     0
102
RTVSPost2010PropOp36
 70
     1
102
RTVSPost2010Prop37
 90
       50
102
RTVSPost2010PropOp37
 70
     1
102
RTVSPost2010Prop38
140
0.0
102
RTVSPost2010PropOp38
 70
     1
102
RTVSPost2010Prop39
140
1.0
102
RTVSPost2010PropOp39
 70
     1
102
RTVSPost2010Prop40
 90
        0
102
RTVSPost2010PropOp40
 70
     1
102
RTVSPost2010Prop41ColorIndex
 90
       18
102
RTVSPost2010Prop41ColorRGB
 90
        0
102
RTVSPost2010PropOp41
 70
     1
102
RTVSPost2010Prop42
 90
       50
102
RTVSPost2010PropOp42
 70
     1
102
RTVSPost2010Prop43
 90
        3
102
RTVSPost2010PropOp43
 70
     1
102
RTVSPost2010Prop44ColorIndex
 90
        5
102
RTVSPost2010Prop44ColorRGB
 90
      255
102
RTVSPost2010PropOp44
 70
     1
102
RTVSPost2010Prop45
280
     0
102
RTVSPost2010PropOp45
 70
     1
102
RTVSPost2010Prop46
 90
       50
102
RTVSPost2010PropOp46
 70
     1
102
RTVSPost2010Prop47
 90
       50
102
RTVSPost2010PropOp47
 70
     1
102
RTVSPost2010Prop48
 90
       50
102
RTVSPost2010PropOp48
 70
     1
102
RTVSPost2010Prop49
280
     0
102
RTVSPost2010PropOp49
 70
     1
102
RTVSPost2010Prop50
 90
       50
102
RTVSPost2010PropOp50
 70
     1
102
RTVSPost2010Prop51ColorIndex
 90
      256
102
RTVSPost2010Prop51ColorRGB
 90
-16777216
102
RTVSPost2010PropOp51
 70
     0
102
RTVSPost2010Prop52
140
1.0
102
RTVSPost2010PropOp52
 70
     0
102
RTVSPost2010Prop53
 90
        2
102
RTVSPost2010PropOp53
 70
     1
102
RTVSPost2010Prop54
  1
strokes_ogs.tif
102
RTVSPost2010PropOp54
 70
     1
102
RTVSPost2010Prop55
280
     0
102
RTVSPost2010PropOp55
 70
     1
102
RTVSPost2010Prop56
140
1.0
102
RTVSPost2010PropOp56
 70
     1
102
RTVSPost2010Prop57
140
1.0
102
RTVSPost2010PropOp57
 70
     1
102
RTVSPropertyOp0
 70
     1
102
RTVSPropertyOp1
 70
     1
102
RTVSPropertyOp2
 70
     1
102
RTVSPropertyOp3
 70
     1
102
RTVSPropertyOp4
 70
     1
102
RTVSPropertyOp5
 70
     1
102
RTVSPropertyOp6
 70
     1
102
RTVSPropertyOp7
 70
     1
102
RTVSPropertyOp8
 70
     1
102
RTVSPropertyOp9
 70
     1
102
RTVSPropertyOp10
 70
     1
102
RTVSPropertyOp11
 70
     1
102
RTVSPropertyOp12
 70
     1
102
RTVSPropertyOp13
 70
     1
102
RTVSPropertyOp14
 70
     1
102
RTVSPropertyOp15
 70
     1
102
RTVSPropertyOp16
 70
     1
102
RTVSPropertyOp17
 70
     1
102
RTVSPropertyOp18
 70
     1
102
RTVSPropertyOp19
 70
     1
102
RTVSPropertyOp20
 70
     1
102
RTVSPropertyOp21
 70
     1
102
RTVSPropertyOp22
 70
     1
102
RTVSPropertyOp23
 70
     1
102
RTVSPropertyOp24
 70
     1
102
RTVSPropertyOp25
 70
     1
102
RTVSPropertyOp26
 70
     1
102
RTVSPropertyOp27
 70
     1
102
RTVSPropertyOp28
 70
     1
102
RTVSPropertyOp29
 70
     1
102
RTVSPropertyOp30
 70
     1
102
RTVSPropertyOp31
 70
     1
102
RTVSPropertyOp32
 70
     1
102
RTVSPropertyOp33
 70
     1
102
RTVSPropertyOp34
 70
     1
102
RTVSPropertyOp35
 70
     1
102
RTVSPropertyOp36
 70
     1
102
RTVSPropertyOp37
 70
     1
102
RTVSPropertyOp38
 70
     1
102
RTVSPropertyOp39
 70
     1
102
RTVSPropertyOp40
 70
     1
102
RTVSPropertyOp41
 70
     1
102
RTVSPropertyOp42
 70
     1
102
RTVSPropertyOp43
 70
     1
102
RTVSPropertyOp44
 70
     1
102
RTVSPropertyOp45
 70
     1
102
RTVSPropertyOp46
 70
     1
102
RTVSPropertyOp47
 70
     1
102
RTVSPropertyOp48
 70
     1
102
RTVSPropertyOp49
 70
     1
102
RTVSPropertyOp50
 70
     1
102
RTVSPropertyOp51
 70
     0
102
RTVSPropertyOp52
 70
     0
102
RTVSPropertyOp53
 70
     1
102
RTVSPropertyOp54
 70
     1
102
RTVSPropertyOp55
 70
     1
102
RTVSPropertyOp56
 70
     1
102
RTVSPropertyOp57
 70
     1
102
RTVSPropertyOp58
 70
     1
102
RTVSPropertyOp59
 70
     1
102
RTVSPropertyOp60
 70
     1
102
RTVSPropertyOp61
 70
     1
102
RTVSPropertyOp62
 70
     1
  0
XRECORD
  5
81BD
102
{ACAD_REACTORS
330
81BC
102
}
330
81BC
100
AcDbXrecord
280
     1
102
RTVSPost2010Prop28
280
     0
102
RTVSPost2010PropOp28
 70
     1
102
RTVSPost2010Prop29
280
     1
102
RTVSPost2010PropOp29
 70
     1
102
RTVSPost2010Prop30
280
     1
102
RTVSPost2010PropOp30
 70
     1
102
RTVSPost2010Prop31
280
     0
102
RTVSPost2010PropOp31
 70
     1
102
RTVSPost2010Prop32
280
     0
102
RTVSPost2010PropOp32
 70
     1
102
RTVSPost2010Prop33
280
     0
102
RTVSPost2010PropOp33
 70
     1
102
RTVSPost2010Prop34
280
     0
102
RTVSPost2010PropOp34
 70
     1
102
RTVSPost2010Prop35
280
     0
102
RTVSPost2010PropOp35
 70
     1
102
RTVSPost2010Prop36
280
     0
102
RTVSPost2010PropOp36
 70
     1
102
RTVSPost2010Prop37
 90
       50
102
RTVSPost2010PropOp37
 70
     1
102
RTVSPost2010Prop38
140
0.0
102
RTVSPost2010PropOp38
 70
     1
102
RTVSPost2010Prop39
140
1.0
102
RTVSPost2010PropOp39
 70
     1
102
RTVSPost2010Prop40
 90
        0
102
RTVSPost2010PropOp40
 70
     1
102
RTVSPost2010Prop41ColorIndex
 90
       18
102
RTVSPost2010Prop41ColorRGB
 90
        0
102
RTVSPost2010PropOp41
 70
     1
102
RTVSPost2010Prop42
 90
       50
102
RTVSPost2010PropOp42
 70
     1
102
RTVSPost2010Prop43
 90
        3
102
RTVSPost2010PropOp43
 70
     1
102
RTVSPost2010Prop44ColorIndex
 90
        5
102
RTVSPost2010Prop44ColorRGB
 90
      255
102
RTVSPost2010PropOp44
 70
     1
102
RTVSPost2010Prop45
280
     0
102
RTVSPost2010PropOp45
 70
     1
102
RTVSPost2010Prop46
 90
       50
102
RTVSPost2010PropOp46
 70
     1
102
RTVSPost2010Prop47
 90
       50
102
RTVSPost2010PropOp47
 70
     1
102
RTVSPost2010Prop48
 90
       50
102
RTVSPost2010PropOp48
 70
     1
102
RTVSPost2010Prop49
280
     0
102
RTVSPost2010PropOp49
 70
     1
102
RTVSPost2010Prop50
 90
       50
102
RTVSPost2010PropOp50
 70
     1
102
RTVSPost2010Prop51ColorIndex
 90
      256
102
RTVSPost2010Prop51ColorRGB
 90
-16777216
102
RTVSPost2010PropOp51
 70
     0
102
RTVSPost2010Prop52
140
1.0
102
RTVSPost2010PropOp52
 70
     0
102
RTVSPost2010Prop53
 90
        2
102
RTVSPost2010PropOp53
 70
     1
102
RTVSPost2010Prop54
  1
strokes_ogs.tif
102
RTVSPost2010PropOp54
 70
     1
102
RTVSPost2010Prop55
280
     0
102
RTVSPost2010PropOp55
 70
     1
102
RTVSPost2010Prop56
140
1.0
102
RTVSPost2010PropOp56
 70
     1
102
RTVSPost2010Prop57
140
1.0
102
RTVSPost2010PropOp57
 70
     1
102
RTVSPropertyOp0
 70
     1
102
RTVSPropertyOp1
 70
     1
102
RTVSPropertyOp2
 70
     1
102
RTVSPropertyOp3
 70
     1
102
RTVSPropertyOp4
 70
     1
102
RTVSPropertyOp5
 70
     1
102
RTVSPropertyOp6
 70
     1
102
RTVSPropertyOp7
 70
     1
102
RTVSPropertyOp8
 70
     1
102
RTVSPropertyOp9
 70
     1
102
RTVSPropertyOp10
 70
     1
102
RTVSPropertyOp11
 70
     1
102
RTVSPropertyOp12
 70
     1
102
RTVSPropertyOp13
 70
     1
102
RTVSPropertyOp14
 70
     1
102
RTVSPropertyOp15
 70
     1
102
RTVSPropertyOp16
 70
     1
102
RTVSPropertyOp17
 70
     1
102
RTVSPropertyOp18
 70
     1
102
RTVSPropertyOp19
 70
     1
102
RTVSPropertyOp20
 70
     1
102
RTVSPropertyOp21
 70
     1
102
RTVSPropertyOp22
 70
     1
102
RTVSPropertyOp23
 70
     1
102
RTVSPropertyOp24
 70
     1
102
RTVSPropertyOp25
 70
     1
102
RTVSPropertyOp26
 70
     1
102
RTVSPropertyOp27
 70
     1
102
RTVSPropertyOp28
 70
     1
102
RTVSPropertyOp29
 70
     1
102
RTVSPropertyOp30
 70
     1
102
RTVSPropertyOp31
 70
     1
102
RTVSPropertyOp32
 70
     1
102
RTVSPropertyOp33
 70
     1
102
RTVSPropertyOp34
 70
     1
102
RTVSPropertyOp35
 70
     1
102
RTVSPropertyOp36
 70
     1
102
RTVSPropertyOp37
 70
     1
102
RTVSPropertyOp38
 70
     1
102
RTVSPropertyOp39
 70
     1
102
RTVSPropertyOp40
 70
     1
102
RTVSPropertyOp41
 70
     1
102
RTVSPropertyOp42
 70
     1
102
RTVSPropertyOp43
 70
     1
102
RTVSPropertyOp44
 70
     1
102
RTVSPropertyOp45
 70
     1
102
RTVSPropertyOp46
 70
     1
102
RTVSPropertyOp47
 70
     1
102
RTVSPropertyOp48
 70
     1
102
RTVSPropertyOp49
 70
     1
102
RTVSPropertyOp50
 70
     1
102
RTVSPropertyOp51
 70
     0
102
RTVSPropertyOp52
 70
     0
102
RTVSPropertyOp53
 70
     1
102
RTVSPropertyOp54
 70
     1
102
RTVSPropertyOp55
 70
     1
102
RTVSPropertyOp56
 70
     1
102
RTVSPropertyOp57
 70
     1
102
RTVSPropertyOp58
 70
     1
102
RTVSPropertyOp59
 70
     1
102
RTVSPropertyOp60
 70
     1
102
RTVSPropertyOp61
 70
     1
102
RTVSPropertyOp62
 70
     1
  0
XRECORD
  5
81C1
102
{ACAD_REACTORS
330
81C0
102
}
330
81C0
100
AcDbXrecord
280
     1
102
RTVSPost2010Prop28
280
     0
102
RTVSPost2010PropOp28
 70
     1
102
RTVSPost2010Prop29
280
     1
102
RTVSPost2010PropOp29
 70
     1
102
RTVSPost2010Prop30
280
     1
102
RTVSPost2010PropOp30
 70
     1
102
RTVSPost2010Prop31
280
     0
102
RTVSPost2010PropOp31
 70
     1
102
RTVSPost2010Prop32
280
     0
102
RTVSPost2010PropOp32
 70
     1
102
RTVSPost2010Prop33
280
     0
102
RTVSPost2010PropOp33
 70
     1
102
RTVSPost2010Prop34
280
     0
102
RTVSPost2010PropOp34
 70
     1
102
RTVSPost2010Prop35
280
     0
102
RTVSPost2010PropOp35
 70
     1
102
RTVSPost2010Prop36
280
     0
102
RTVSPost2010PropOp36
 70
     1
102
RTVSPost2010Prop37
 90
       50
102
RTVSPost2010PropOp37
 70
     1
102
RTVSPost2010Prop38
140
0.0
102
RTVSPost2010PropOp38
 70
     1
102
RTVSPost2010Prop39
140
1.0
102
RTVSPost2010PropOp39
 70
     1
102
RTVSPost2010Prop40
 90
        0
102
RTVSPost2010PropOp40
 70
     1
102
RTVSPost2010Prop41ColorIndex
 90
       18
102
RTVSPost2010Prop41ColorRGB
 90
        0
102
RTVSPost2010PropOp41
 70
     1
102
RTVSPost2010Prop42
 90
       50
102
RTVSPost2010PropOp42
 70
     1
102
RTVSPost2010Prop43
 90
        3
102
RTVSPost2010PropOp43
 70
     1
102
RTVSPost2010Prop44ColorIndex
 90
        5
102
RTVSPost2010Prop44ColorRGB
 90
      255
102
RTVSPost2010PropOp44
 70
     1
102
RTVSPost2010Prop45
280
     0
102
RTVSPost2010PropOp45
 70
     1
102
RTVSPost2010Prop46
 90
       50
102
RTVSPost2010PropOp46
 70
     1
102
RTVSPost2010Prop47
 90
       50
102
RTVSPost2010PropOp47
 70
     1
102
RTVSPost2010Prop48
 90
       50
102
RTVSPost2010PropOp48
 70
     1
102
RTVSPost2010Prop49
280
     0
102
RTVSPost2010PropOp49
 70
     1
102
RTVSPost2010Prop50
 90
       50
102
RTVSPost2010PropOp50
 70
     1
102
RTVSPost2010Prop51ColorIndex
 90
      256
102
RTVSPost2010Prop51ColorRGB
 90
-16777216
102
RTVSPost2010PropOp51
 70
     0
102
RTVSPost2010Prop52
140
1.0
102
RTVSPost2010PropOp52
 70
     0
102
RTVSPost2010Prop53
 90
        2
102
RTVSPost2010PropOp53
 70
     1
102
RTVSPost2010Prop54
  1
strokes_ogs.tif
102
RTVSPost2010PropOp54
 70
     1
102
RTVSPost2010Prop55
280
     0
102
RTVSPost2010PropOp55
 70
     1
102
RTVSPost2010Prop56
140
1.0
102
RTVSPost2010PropOp56
 70
     1
102
RTVSPost2010Prop57
140
1.0
102
RTVSPost2010PropOp57
 70
     1
102
RTVSPropertyOp0
 70
     1
102
RTVSPropertyOp1
 70
     1
102
RTVSPropertyOp2
 70
     1
102
RTVSPropertyOp3
 70
     1
102
RTVSPropertyOp4
 70
     1
102
RTVSPropertyOp5
 70
     1
102
RTVSPropertyOp6
 70
     1
102
RTVSPropertyOp7
 70
     1
102
RTVSPropertyOp8
 70
     1
102
RTVSPropertyOp9
 70
     1
102
RTVSPropertyOp10
 70
     1
102
RTVSPropertyOp11
 70
     1
102
RTVSPropertyOp12
 70
     1
102
RTVSPropertyOp13
 70
     1
102
RTVSPropertyOp14
 70
     1
102
RTVSPropertyOp15
 70
     1
102
RTVSPropertyOp16
 70
     1
102
RTVSPropertyOp17
 70
     1
102
RTVSPropertyOp18
 70
     1
102
RTVSPropertyOp19
 70
     1
102
RTVSPropertyOp20
 70
     1
102
RTVSPropertyOp21
 70
     1
102
RTVSPropertyOp22
 70
     1
102
RTVSPropertyOp23
 70
     1
102
RTVSPropertyOp24
 70
     1
102
RTVSPropertyOp25
 70
     1
102
RTVSPropertyOp26
 70
     1
102
RTVSPropertyOp27
 70
     1
102
RTVSPropertyOp28
 70
     1
102
RTVSPropertyOp29
 70
     1
102
RTVSPropertyOp30
 70
     1
102
RTVSPropertyOp31
 70
     1
102
RTVSPropertyOp32
 70
     1
102
RTVSPropertyOp33
 70
     1
102
RTVSPropertyOp34
 70
     1
102
RTVSPropertyOp35
 70
     1
102
RTVSPropertyOp36
 70
     1
102
RTVSPropertyOp37
 70
     1
102
RTVSPropertyOp38
 70
     1
102
RTVSPropertyOp39
 70
     1
102
RTVSPropertyOp40
 70
     1
102
RTVSPropertyOp41
 70
     1
102
RTVSPropertyOp42
 70
     1
102
RTVSPropertyOp43
 70
     1
102
RTVSPropertyOp44
 70
     1
102
RTVSPropertyOp45
 70
     1
102
RTVSPropertyOp46
 70
     1
102
RTVSPropertyOp47
 70
     1
102
RTVSPropertyOp48
 70
     1
102
RTVSPropertyOp49
 70
     1
102
RTVSPropertyOp50
 70
     1
102
RTVSPropertyOp51
 70
     0
102
RTVSPropertyOp52
 70
     0
102
RTVSPropertyOp53
 70
     1
102
RTVSPropertyOp54
 70
     1
102
RTVSPropertyOp55
 70
     1
102
RTVSPropertyOp56
 70
     1
102
RTVSPropertyOp57
 70
     1
102
RTVSPropertyOp58
 70
     1
102
RTVSPropertyOp59
 70
     1
102
RTVSPropertyOp60
 70
     1
102
RTVSPropertyOp61
 70
     1
102
RTVSPropertyOp62
 70
     1
  0
XRECORD
  5
81D3
102
{ACAD_REACTORS
330
81D2
102
}
330
81D2
100
AcDbXrecord
280
     1
102
RTVSPost2010Prop28
280
     0
102
RTVSPost2010PropOp28
 70
     1
102
RTVSPost2010Prop29
280
     1
102
RTVSPost2010PropOp29
 70
     1
102
RTVSPost2010Prop30
280
     1
102
RTVSPost2010PropOp30
 70
     1
102
RTVSPost2010Prop31
280
     0
102
RTVSPost2010PropOp31
 70
     1
102
RTVSPost2010Prop32
280
     0
102
RTVSPost2010PropOp32
 70
     1
102
RTVSPost2010Prop33
280
     0
102
RTVSPost2010PropOp33
 70
     1
102
RTVSPost2010Prop34
280
     0
102
RTVSPost2010PropOp34
 70
     1
102
RTVSPost2010Prop35
280
     0
102
RTVSPost2010PropOp35
 70
     1
102
RTVSPost2010Prop36
280
     0
102
RTVSPost2010PropOp36
 70
     1
102
RTVSPost2010Prop37
 90
       50
102
RTVSPost2010PropOp37
 70
     1
102
RTVSPost2010Prop38
140
0.0
102
RTVSPost2010PropOp38
 70
     1
102
RTVSPost2010Prop39
140
1.0
102
RTVSPost2010PropOp39
 70
     1
102
RTVSPost2010Prop40
 90
        0
102
RTVSPost2010PropOp40
 70
     1
102
RTVSPost2010Prop41ColorIndex
 90
       18
102
RTVSPost2010Prop41ColorRGB
 90
        0
102
RTVSPost2010PropOp41
 70
     1
102
RTVSPost2010Prop42
 90
       50
102
RTVSPost2010PropOp42
 70
     1
102
RTVSPost2010Prop43
 90
        3
102
RTVSPost2010PropOp43
 70
     1
102
RTVSPost2010Prop44ColorIndex
 90
        5
102
RTVSPost2010Prop44ColorRGB
 90
      255
102
RTVSPost2010PropOp44
 70
     1
102
RTVSPost2010Prop45
280
     0
102
RTVSPost2010PropOp45
 70
     1
102
RTVSPost2010Prop46
 90
       50
102
RTVSPost2010PropOp46
 70
     1
102
RTVSPost2010Prop47
 90
       50
102
RTVSPost2010PropOp47
 70
     1
102
RTVSPost2010Prop48
 90
       50
102
RTVSPost2010PropOp48
 70
     1
102
RTVSPost2010Prop49
280
     0
102
RTVSPost2010PropOp49
 70
     1
102
RTVSPost2010Prop50
 90
       50
102
RTVSPost2010PropOp50
 70
     1
102
RTVSPost2010Prop51ColorIndex
 90
      256
102
RTVSPost2010Prop51ColorRGB
 90
-16777216
102
RTVSPost2010PropOp51
 70
     0
102
RTVSPost2010Prop52
140
1.0
102
RTVSPost2010PropOp52
 70
     0
102
RTVSPost2010Prop53
 90
        2
102
RTVSPost2010PropOp53
 70
     1
102
RTVSPost2010Prop54
  1
strokes_ogs.tif
102
RTVSPost2010PropOp54
 70
     1
102
RTVSPost2010Prop55
280
     0
102
RTVSPost2010PropOp55
 70
     1
102
RTVSPost2010Prop56
140
1.0
102
RTVSPost2010PropOp56
 70
     1
102
RTVSPost2010Prop57
140
1.0
102
RTVSPost2010PropOp57
 70
     1
102
RTVSPropertyOp0
 70
     0
102
RTVSPropertyOp1
 70
     0
102
RTVSPropertyOp2
 70
     0
102
RTVSPropertyOp3
 70
     0
102
RTVSPropertyOp4
 70
     0
102
RTVSPropertyOp5
 70
     0
102
RTVSPropertyOp6
 70
     0
102
RTVSPropertyOp7
 70
     0
102
RTVSPropertyOp8
 70
     0
102
RTVSPropertyOp9
 70
     0
102
RTVSPropertyOp10
 70
     0
102
RTVSPropertyOp11
 70
     0
102
RTVSPropertyOp12
 70
     0
102
RTVSPropertyOp13
 70
     0
102
RTVSPropertyOp14
 70
     2
102
RTVSPropertyOp15
 70
     0
102
RTVSPropertyOp16
 70
     0
102
RTVSPropertyOp17
 70
     0
102
RTVSPropertyOp18
 70
     0
102
RTVSPropertyOp19
 70
     0
102
RTVSPropertyOp20
 70
     0
102
RTVSPropertyOp21
 70
     0
102
RTVSPropertyOp22
 70
     0
102
RTVSPropertyOp23
 70
     0
102
RTVSPropertyOp24
 70
     0
102
RTVSPropertyOp25
 70
     0
102
RTVSPropertyOp26
 70
     0
102
RTVSPropertyOp27
 70
     0
102
RTVSPropertyOp28
 70
     1
102
RTVSPropertyOp29
 70
     1
102
RTVSPropertyOp30
 70
     1
102
RTVSPropertyOp31
 70
     1
102
RTVSPropertyOp32
 70
     1
102
RTVSPropertyOp33
 70
     1
102
RTVSPropertyOp34
 70
     1
102
RTVSPropertyOp35
 70
     1
102
RTVSPropertyOp36
 70
     1
102
RTVSPropertyOp37
 70
     1
102
RTVSPropertyOp38
 70
     1
102
RTVSPropertyOp39
 70
     1
102
RTVSPropertyOp40
 70
     1
102
RTVSPropertyOp41
 70
     1
102
RTVSPropertyOp42
 70
     1
102
RTVSPropertyOp43
 70
     1
102
RTVSPropertyOp44
 70
     1
102
RTVSPropertyOp45
 70
     1
102
RTVSPropertyOp46
 70
     1
102
RTVSPropertyOp47
 70
     1
102
RTVSPropertyOp48
 70
     1
102
RTVSPropertyOp49
 70
     1
102
RTVSPropertyOp50
 70
     1
102
RTVSPropertyOp51
 70
     0
102
RTVSPropertyOp52
 70
     0
102
RTVSPropertyOp53
 70
     1
102
RTVSPropertyOp54
 70
     1
102
RTVSPropertyOp55
 70
     1
102
RTVSPropertyOp56
 70
     1
102
RTVSPropertyOp57
 70
     1
102
RTVSPropertyOp58
 70
     1
102
RTVSPropertyOp59
 70
     1
102
RTVSPropertyOp60
 70
     1
102
RTVSPropertyOp61
 70
     1
102
RTVSPropertyOp62
 70
     1
  0
XRECORD
  5
81C9
102
{ACAD_REACTORS
330
81C8
102
}
330
81C8
100
AcDbXrecord
280
     1
102
RTVSPost2010Prop28
280
     0
102
RTVSPost2010PropOp28
 70
     1
102
RTVSPost2010Prop29
280
     1
102
RTVSPost2010PropOp29
 70
     1
102
RTVSPost2010Prop30
280
     1
102
RTVSPost2010PropOp30
 70
     1
102
RTVSPost2010Prop31
280
     0
102
RTVSPost2010PropOp31
 70
     1
102
RTVSPost2010Prop32
280
     0
102
RTVSPost2010PropOp32
 70
     1
102
RTVSPost2010Prop33
280
     0
102
RTVSPost2010PropOp33
 70
     1
102
RTVSPost2010Prop34
280
     0
102
RTVSPost2010PropOp34
 70
     1
102
RTVSPost2010Prop35
280
     0
102
RTVSPost2010PropOp35
 70
     1
102
RTVSPost2010Prop36
280
     0
102
RTVSPost2010PropOp36
 70
     1
102
RTVSPost2010Prop37
 90
       50
102
RTVSPost2010PropOp37
 70
     1
102
RTVSPost2010Prop38
140
0.0
102
RTVSPost2010PropOp38
 70
     1
102
RTVSPost2010Prop39
140
1.0
102
RTVSPost2010PropOp39
 70
     1
102
RTVSPost2010Prop40
 90
        0
102
RTVSPost2010PropOp40
 70
     1
102
RTVSPost2010Prop41ColorIndex
 90
       18
102
RTVSPost2010Prop41ColorRGB
 90
        0
102
RTVSPost2010PropOp41
 70
     1
102
RTVSPost2010Prop42
 90
       50
102
RTVSPost2010PropOp42
 70
     1
102
RTVSPost2010Prop43
 90
        3
102
RTVSPost2010PropOp43
 70
     1
102
RTVSPost2010Prop44ColorIndex
 90
        5
102
RTVSPost2010Prop44ColorRGB
 90
      255
102
RTVSPost2010PropOp44
 70
     1
102
RTVSPost2010Prop45
280
     0
102
RTVSPost2010PropOp45
 70
     1
102
RTVSPost2010Prop46
 90
       50
102
RTVSPost2010PropOp46
 70
     1
102
RTVSPost2010Prop47
 90
       50
102
RTVSPost2010PropOp47
 70
     1
102
RTVSPost2010Prop48
 90
       50
102
RTVSPost2010PropOp48
 70
     1
102
RTVSPost2010Prop49
280
     0
102
RTVSPost2010PropOp49
 70
     1
102
RTVSPost2010Prop50
 90
       50
102
RTVSPost2010PropOp50
 70
     1
102
RTVSPost2010Prop51ColorIndex
 90
      256
102
RTVSPost2010Prop51ColorRGB
 90
-16777216
102
RTVSPost2010PropOp51
 70
     0
102
RTVSPost2010Prop52
140
1.0
102
RTVSPost2010PropOp52
 70
     0
102
RTVSPost2010Prop53
 90
        2
102
RTVSPost2010PropOp53
 70
     1
102
RTVSPost2010Prop54
  1
strokes_ogs.tif
102
RTVSPost2010PropOp54
 70
     1
102
RTVSPost2010Prop55
280
     0
102
RTVSPost2010PropOp55
 70
     1
102
RTVSPost2010Prop56
140
1.0
102
RTVSPost2010PropOp56
 70
     1
102
RTVSPost2010Prop57
140
1.0
102
RTVSPost2010PropOp57
 70
     1
102
RTVSPropertyOp0
 70
     1
102
RTVSPropertyOp1
 70
     1
102
RTVSPropertyOp2
 70
     1
102
RTVSPropertyOp3
 70
     1
102
RTVSPropertyOp4
 70
     1
102
RTVSPropertyOp5
 70
     1
102
RTVSPropertyOp6
 70
     1
102
RTVSPropertyOp7
 70
     1
102
RTVSPropertyOp8
 70
     1
102
RTVSPropertyOp9
 70
     1
102
RTVSPropertyOp10
 70
     1
102
RTVSPropertyOp11
 70
     1
102
RTVSPropertyOp12
 70
     1
102
RTVSPropertyOp13
 70
     1
102
RTVSPropertyOp14
 70
     1
102
RTVSPropertyOp15
 70
     1
102
RTVSPropertyOp16
 70
     1
102
RTVSPropertyOp17
 70
     1
102
RTVSPropertyOp18
 70
     1
102
RTVSPropertyOp19
 70
     1
102
RTVSPropertyOp20
 70
     1
102
RTVSPropertyOp21
 70
     1
102
RTVSPropertyOp22
 70
     1
102
RTVSPropertyOp23
 70
     1
102
RTVSPropertyOp24
 70
     1
102
RTVSPropertyOp25
 70
     1
102
RTVSPropertyOp26
 70
     1
102
RTVSPropertyOp27
 70
     1
102
RTVSPropertyOp28
 70
     1
102
RTVSPropertyOp29
 70
     1
102
RTVSPropertyOp30
 70
     1
102
RTVSPropertyOp31
 70
     1
102
RTVSPropertyOp32
 70
     1
102
RTVSPropertyOp33
 70
     1
102
RTVSPropertyOp34
 70
     1
102
RTVSPropertyOp35
 70
     1
102
RTVSPropertyOp36
 70
     1
102
RTVSPropertyOp37
 70
     1
102
RTVSPropertyOp38
 70
     1
102
RTVSPropertyOp39
 70
     1
102
RTVSPropertyOp40
 70
     1
102
RTVSPropertyOp41
 70
     1
102
RTVSPropertyOp42
 70
     1
102
RTVSPropertyOp43
 70
     1
102
RTVSPropertyOp44
 70
     1
102
RTVSPropertyOp45
 70
     1
102
RTVSPropertyOp46
 70
     1
102
RTVSPropertyOp47
 70
     1
102
RTVSPropertyOp48
 70
     1
102
RTVSPropertyOp49
 70
     1
102
RTVSPropertyOp50
 70
     1
102
RTVSPropertyOp51
 70
     0
102
RTVSPropertyOp52
 70
     0
102
RTVSPropertyOp53
 70
     1
102
RTVSPropertyOp54
 70
     1
102
RTVSPropertyOp55
 70
     1
102
RTVSPropertyOp56
 70
     1
102
RTVSPropertyOp57
 70
     1
102
RTVSPropertyOp58
 70
     1
102
RTVSPropertyOp59
 70
     1
102
RTVSPropertyOp60
 70
     1
102
RTVSPropertyOp61
 70
     1
102
RTVSPropertyOp62
 70
     1
  0
XRECORD
  5
81AD
102
{ACAD_REACTORS
330
81AC
102
}
330
81AC
100
AcDbXrecord
280
     1
102
RTVSPost2010Prop28
280
     0
102
RTVSPost2010PropOp28
 70
     1
102
RTVSPost2010Prop29
280
     1
102
RTVSPost2010PropOp29
 70
     1
102
RTVSPost2010Prop30
280
     1
102
RTVSPost2010PropOp30
 70
     1
102
RTVSPost2010Prop31
280
     0
102
RTVSPost2010PropOp31
 70
     1
102
RTVSPost2010Prop32
280
     0
102
RTVSPost2010PropOp32
 70
     1
102
RTVSPost2010Prop33
280
     0
102
RTVSPost2010PropOp33
 70
     1
102
RTVSPost2010Prop34
280
     0
102
RTVSPost2010PropOp34
 70
     1
102
RTVSPost2010Prop35
280
     0
102
RTVSPost2010PropOp35
 70
     1
102
RTVSPost2010Prop36
280
     0
102
RTVSPost2010PropOp36
 70
     1
102
RTVSPost2010Prop37
 90
       50
102
RTVSPost2010PropOp37
 70
     1
102
RTVSPost2010Prop38
140
0.0
102
RTVSPost2010PropOp38
 70
     1
102
RTVSPost2010Prop39
140
1.0
102
RTVSPost2010PropOp39
 70
     1
102
RTVSPost2010Prop40
 90
        0
102
RTVSPost2010PropOp40
 70
     1
102
RTVSPost2010Prop41ColorIndex
 90
       18
102
RTVSPost2010Prop41ColorRGB
 90
        0
102
RTVSPost2010PropOp41
 70
     1
102
RTVSPost2010Prop42
 90
       50
102
RTVSPost2010PropOp42
 70
     1
102
RTVSPost2010Prop43
 90
        3
102
RTVSPost2010PropOp43
 70
     1
102
RTVSPost2010Prop44ColorIndex
 90
        5
102
RTVSPost2010Prop44ColorRGB
 90
      255
102
RTVSPost2010PropOp44
 70
     1
102
RTVSPost2010Prop45
280
     0
102
RTVSPost2010PropOp45
 70
     1
102
RTVSPost2010Prop46
 90
       50
102
RTVSPost2010PropOp46
 70
     1
102
RTVSPost2010Prop47
 90
       50
102
RTVSPost2010PropOp47
 70
     1
102
RTVSPost2010Prop48
 90
       50
102
RTVSPost2010PropOp48
 70
     1
102
RTVSPost2010Prop49
280
     0
102
RTVSPost2010PropOp49
 70
     1
102
RTVSPost2010Prop50
 90
       50
102
RTVSPost2010PropOp50
 70
     1
102
RTVSPost2010Prop51ColorIndex
 90
      256
102
RTVSPost2010Prop51ColorRGB
 90
-16777216
102
RTVSPost2010PropOp51
 70
     0
102
RTVSPost2010Prop52
140
1.0
102
RTVSPost2010PropOp52
 70
     0
102
RTVSPost2010Prop53
 90
        2
102
RTVSPost2010PropOp53
 70
     1
102
RTVSPost2010Prop54
  1
strokes_ogs.tif
102
RTVSPost2010PropOp54
 70
     1
102
RTVSPost2010Prop55
280
     0
102
RTVSPost2010PropOp55
 70
     1
102
RTVSPost2010Prop56
140
1.0
102
RTVSPost2010PropOp56
 70
     1
102
RTVSPost2010Prop57
140
1.0
102
RTVSPost2010PropOp57
 70
     1
102
RTVSPropertyOp0
 70
     1
102
RTVSPropertyOp1
 70
     1
102
RTVSPropertyOp2
 70
     1
102
RTVSPropertyOp3
 70
     1
102
RTVSPropertyOp4
 70
     1
102
RTVSPropertyOp5
 70
     1
102
RTVSPropertyOp6
 70
     1
102
RTVSPropertyOp7
 70
     1
102
RTVSPropertyOp8
 70
     1
102
RTVSPropertyOp9
 70
     1
102
RTVSPropertyOp10
 70
     1
102
RTVSPropertyOp11
 70
     1
102
RTVSPropertyOp12
 70
     1
102
RTVSPropertyOp13
 70
     1
102
RTVSPropertyOp14
 70
     1
102
RTVSPropertyOp15
 70
     1
102
RTVSPropertyOp16
 70
     1
102
RTVSPropertyOp17
 70
     1
102
RTVSPropertyOp18
 70
     1
102
RTVSPropertyOp19
 70
     1
102
RTVSPropertyOp20
 70
     1
102
RTVSPropertyOp21
 70
     1
102
RTVSPropertyOp22
 70
     1
102
RTVSPropertyOp23
 70
     1
102
RTVSPropertyOp24
 70
     1
102
RTVSPropertyOp25
 70
     1
102
RTVSPropertyOp26
 70
     1
102
RTVSPropertyOp27
 70
     1
102
RTVSPropertyOp28
 70
     1
102
RTVSPropertyOp29
 70
     1
102
RTVSPropertyOp30
 70
     1
102
RTVSPropertyOp31
 70
     1
102
RTVSPropertyOp32
 70
     1
102
RTVSPropertyOp33
 70
     1
102
RTVSPropertyOp34
 70
     1
102
RTVSPropertyOp35
 70
     1
102
RTVSPropertyOp36
 70
     1
102
RTVSPropertyOp37
 70
     1
102
RTVSPropertyOp38
 70
     1
102
RTVSPropertyOp39
 70
     1
102
RTVSPropertyOp40
 70
     1
102
RTVSPropertyOp41
 70
     1
102
RTVSPropertyOp42
 70
     1
102
RTVSPropertyOp43
 70
     1
102
RTVSPropertyOp44
 70
     1
102
RTVSPropertyOp45
 70
     1
102
RTVSPropertyOp46
 70
     1
102
RTVSPropertyOp47
 70
     1
102
RTVSPropertyOp48
 70
     1
102
RTVSPropertyOp49
 70
     1
102
RTVSPropertyOp50
 70
     1
102
RTVSPropertyOp51
 70
     0
102
RTVSPropertyOp52
 70
     0
102
RTVSPropertyOp53
 70
     1
102
RTVSPropertyOp54
 70
     1
102
RTVSPropertyOp55
 70
     1
102
RTVSPropertyOp56
 70
     1
102
RTVSPropertyOp57
 70
     1
102
RTVSPropertyOp58
 70
     1
102
RTVSPropertyOp59
 70
     1
102
RTVSPropertyOp60
 70
     1
102
RTVSPropertyOp61
 70
     1
102
RTVSPropertyOp62
 70
     1
  0
XRECORD
  5
81AF
102
{ACAD_REACTORS
330
81AE
102
}
330
81AE
100
AcDbXrecord
280
     1
102
RTVSPost2010Prop28
280
     0
102
RTVSPost2010PropOp28
 70
     1
102
RTVSPost2010Prop29
280
     1
102
RTVSPost2010PropOp29
 70
     1
102
RTVSPost2010Prop30
280
     1
102
RTVSPost2010PropOp30
 70
     1
102
RTVSPost2010Prop31
280
     0
102
RTVSPost2010PropOp31
 70
     1
102
RTVSPost2010Prop32
280
     0
102
RTVSPost2010PropOp32
 70
     1
102
RTVSPost2010Prop33
280
     0
102
RTVSPost2010PropOp33
 70
     1
102
RTVSPost2010Prop34
280
     0
102
RTVSPost2010PropOp34
 70
     1
102
RTVSPost2010Prop35
280
     0
102
RTVSPost2010PropOp35
 70
     1
102
RTVSPost2010Prop36
280
     0
102
RTVSPost2010PropOp36
 70
     1
102
RTVSPost2010Prop37
 90
       50
102
RTVSPost2010PropOp37
 70
     1
102
RTVSPost2010Prop38
140
0.0
102
RTVSPost2010PropOp38
 70
     1
102
RTVSPost2010Prop39
140
1.0
102
RTVSPost2010PropOp39
 70
     1
102
RTVSPost2010Prop40
 90
        0
102
RTVSPost2010PropOp40
 70
     1
102
RTVSPost2010Prop41ColorIndex
 90
       18
102
RTVSPost2010Prop41ColorRGB
 90
        0
102
RTVSPost2010PropOp41
 70
     1
102
RTVSPost2010Prop42
 90
       50
102
RTVSPost2010PropOp42
 70
     1
102
RTVSPost2010Prop43
 90
        3
102
RTVSPost2010PropOp43
 70
     1
102
RTVSPost2010Prop44ColorIndex
 90
        5
102
RTVSPost2010Prop44ColorRGB
 90
      255
102
RTVSPost2010PropOp44
 70
     1
102
RTVSPost2010Prop45
280
     0
102
RTVSPost2010PropOp45
 70
     1
102
RTVSPost2010Prop46
 90
       50
102
RTVSPost2010PropOp46
 70
     1
102
RTVSPost2010Prop47
 90
       50
102
RTVSPost2010PropOp47
 70
     1
102
RTVSPost2010Prop48
 90
       50
102
RTVSPost2010PropOp48
 70
     1
102
RTVSPost2010Prop49
280
     0
102
RTVSPost2010PropOp49
 70
     1
102
RTVSPost2010Prop50
 90
       50
102
RTVSPost2010PropOp50
 70
     1
102
RTVSPost2010Prop51ColorIndex
 90
      256
102
RTVSPost2010Prop51ColorRGB
 90
-16777216
102
RTVSPost2010PropOp51
 70
     0
102
RTVSPost2010Prop52
140
1.0
102
RTVSPost2010PropOp52
 70
     0
102
RTVSPost2010Prop53
 90
        2
102
RTVSPost2010PropOp53
 70
     1
102
RTVSPost2010Prop54
  1
strokes_ogs.tif
102
RTVSPost2010PropOp54
 70
     1
102
RTVSPost2010Prop55
280
     0
102
RTVSPost2010PropOp55
 70
     1
102
RTVSPost2010Prop56
140
1.0
102
RTVSPost2010PropOp56
 70
     1
102
RTVSPost2010Prop57
140
1.0
102
RTVSPost2010PropOp57
 70
     1
102
RTVSPropertyOp0
 70
     1
102
RTVSPropertyOp1
 70
     1
102
RTVSPropertyOp2
 70
     1
102
RTVSPropertyOp3
 70
     1
102
RTVSPropertyOp4
 70
     1
102
RTVSPropertyOp5
 70
     1
102
RTVSPropertyOp6
 70
     1
102
RTVSPropertyOp7
 70
     1
102
RTVSPropertyOp8
 70
     1
102
RTVSPropertyOp9
 70
     1
102
RTVSPropertyOp10
 70
     1
102
RTVSPropertyOp11
 70
     1
102
RTVSPropertyOp12
 70
     1
102
RTVSPropertyOp13
 70
     1
102
RTVSPropertyOp14
 70
     1
102
RTVSPropertyOp15
 70
     1
102
RTVSPropertyOp16
 70
     1
102
RTVSPropertyOp17
 70
     1
102
RTVSPropertyOp18
 70
     1
102
RTVSPropertyOp19
 70
     1
102
RTVSPropertyOp20
 70
     1
102
RTVSPropertyOp21
 70
     1
102
RTVSPropertyOp22
 70
     1
102
RTVSPropertyOp23
 70
     1
102
RTVSPropertyOp24
 70
     1
102
RTVSPropertyOp25
 70
     1
102
RTVSPropertyOp26
 70
     1
102
RTVSPropertyOp27
 70
     1
102
RTVSPropertyOp28
 70
     1
102
RTVSPropertyOp29
 70
     1
102
RTVSPropertyOp30
 70
     1
102
RTVSPropertyOp31
 70
     1
102
RTVSPropertyOp32
 70
     1
102
RTVSPropertyOp33
 70
     1
102
RTVSPropertyOp34
 70
     1
102
RTVSPropertyOp35
 70
     1
102
RTVSPropertyOp36
 70
     1
102
RTVSPropertyOp37
 70
     1
102
RTVSPropertyOp38
 70
     1
102
RTVSPropertyOp39
 70
     1
102
RTVSPropertyOp40
 70
     1
102
RTVSPropertyOp41
 70
     1
102
RTVSPropertyOp42
 70
     1
102
RTVSPropertyOp43
 70
     1
102
RTVSPropertyOp44
 70
     1
102
RTVSPropertyOp45
 70
     1
102
RTVSPropertyOp46
 70
     1
102
RTVSPropertyOp47
 70
     1
102
RTVSPropertyOp48
 70
     1
102
RTVSPropertyOp49
 70
     1
102
RTVSPropertyOp50
 70
     1
102
RTVSPropertyOp51
 70
     0
102
RTVSPropertyOp52
 70
     0
102
RTVSPropertyOp53
 70
     1
102
RTVSPropertyOp54
 70
     1
102
RTVSPropertyOp55
 70
     1
102
RTVSPropertyOp56
 70
     1
102
RTVSPropertyOp57
 70
     1
102
RTVSPropertyOp58
 70
     1
102
RTVSPropertyOp59
 70
     1
102
RTVSPropertyOp60
 70
     1
102
RTVSPropertyOp61
 70
     1
102
RTVSPropertyOp62
 70
     1
  0
XRECORD
  5
81B1
102
{ACAD_REACTORS
330
81B0
102
}
330
81B0
100
AcDbXrecord
280
     1
102
RTVSPost2010Prop28
280
     0
102
RTVSPost2010PropOp28
 70
     1
102
RTVSPost2010Prop29
280
     1
102
RTVSPost2010PropOp29
 70
     1
102
RTVSPost2010Prop30
280
     1
102
RTVSPost2010PropOp30
 70
     1
102
RTVSPost2010Prop31
280
     0
102
RTVSPost2010PropOp31
 70
     1
102
RTVSPost2010Prop32
280
     0
102
RTVSPost2010PropOp32
 70
     1
102
RTVSPost2010Prop33
280
     0
102
RTVSPost2010PropOp33
 70
     1
102
RTVSPost2010Prop34
280
     0
102
RTVSPost2010PropOp34
 70
     1
102
RTVSPost2010Prop35
280
     0
102
RTVSPost2010PropOp35
 70
     1
102
RTVSPost2010Prop36
280
     0
102
RTVSPost2010PropOp36
 70
     1
102
RTVSPost2010Prop37
 90
       50
102
RTVSPost2010PropOp37
 70
     1
102
RTVSPost2010Prop38
140
0.0
102
RTVSPost2010PropOp38
 70
     1
102
RTVSPost2010Prop39
140
1.0
102
RTVSPost2010PropOp39
 70
     1
102
RTVSPost2010Prop40
 90
        0
102
RTVSPost2010PropOp40
 70
     1
102
RTVSPost2010Prop41ColorIndex
 90
       18
102
RTVSPost2010Prop41ColorRGB
 90
        0
102
RTVSPost2010PropOp41
 70
     1
102
RTVSPost2010Prop42
 90
       50
102
RTVSPost2010PropOp42
 70
     1
102
RTVSPost2010Prop43
 90
        3
102
RTVSPost2010PropOp43
 70
     1
102
RTVSPost2010Prop44ColorIndex
 90
        5
102
RTVSPost2010Prop44ColorRGB
 90
      255
102
RTVSPost2010PropOp44
 70
     1
102
RTVSPost2010Prop45
280
     0
102
RTVSPost2010PropOp45
 70
     1
102
RTVSPost2010Prop46
 90
       50
102
RTVSPost2010PropOp46
 70
     1
102
RTVSPost2010Prop47
 90
       50
102
RTVSPost2010PropOp47
 70
     1
102
RTVSPost2010Prop48
 90
       50
102
RTVSPost2010PropOp48
 70
     1
102
RTVSPost2010Prop49
280
     0
102
RTVSPost2010PropOp49
 70
     1
102
RTVSPost2010Prop50
 90
       50
102
RTVSPost2010PropOp50
 70
     1
102
RTVSPost2010Prop51ColorIndex
 90
      256
102
RTVSPost2010Prop51ColorRGB
 90
-16777216
102
RTVSPost2010PropOp51
 70
     0
102
RTVSPost2010Prop52
140
1.0
102
RTVSPost2010PropOp52
 70
     0
102
RTVSPost2010Prop53
 90
        2
102
RTVSPost2010PropOp53
 70
     1
102
RTVSPost2010Prop54
  1
strokes_ogs.tif
102
RTVSPost2010PropOp54
 70
     1
102
RTVSPost2010Prop55
280
     0
102
RTVSPost2010PropOp55
 70
     1
102
RTVSPost2010Prop56
140
1.0
102
RTVSPost2010PropOp56
 70
     1
102
RTVSPost2010Prop57
140
1.0
102
RTVSPost2010PropOp57
 70
     1
102
RTVSPropertyOp0
 70
     1
102
RTVSPropertyOp1
 70
     1
102
RTVSPropertyOp2
 70
     1
102
RTVSPropertyOp3
 70
     1
102
RTVSPropertyOp4
 70
     1
102
RTVSPropertyOp5
 70
     1
102
RTVSPropertyOp6
 70
     1
102
RTVSPropertyOp7
 70
     1
102
RTVSPropertyOp8
 70
     1
102
RTVSPropertyOp9
 70
     1
102
RTVSPropertyOp10
 70
     1
102
RTVSPropertyOp11
 70
     1
102
RTVSPropertyOp12
 70
     1
102
RTVSPropertyOp13
 70
     1
102
RTVSPropertyOp14
 70
     1
102
RTVSPropertyOp15
 70
     1
102
RTVSPropertyOp16
 70
     1
102
RTVSPropertyOp17
 70
     1
102
RTVSPropertyOp18
 70
     1
102
RTVSPropertyOp19
 70
     1
102
RTVSPropertyOp20
 70
     1
102
RTVSPropertyOp21
 70
     1
102
RTVSPropertyOp22
 70
     1
102
RTVSPropertyOp23
 70
     1
102
RTVSPropertyOp24
 70
     1
102
RTVSPropertyOp25
 70
     1
102
RTVSPropertyOp26
 70
     1
102
RTVSPropertyOp27
 70
     1
102
RTVSPropertyOp28
 70
     1
102
RTVSPropertyOp29
 70
     1
102
RTVSPropertyOp30
 70
     1
102
RTVSPropertyOp31
 70
     1
102
RTVSPropertyOp32
 70
     1
102
RTVSPropertyOp33
 70
     1
102
RTVSPropertyOp34
 70
     1
102
RTVSPropertyOp35
 70
     1
102
RTVSPropertyOp36
 70
     1
102
RTVSPropertyOp37
 70
     1
102
RTVSPropertyOp38
 70
     1
102
RTVSPropertyOp39
 70
     1
102
RTVSPropertyOp40
 70
     1
102
RTVSPropertyOp41
 70
     1
102
RTVSPropertyOp42
 70
     1
102
RTVSPropertyOp43
 70
     1
102
RTVSPropertyOp44
 70
     1
102
RTVSPropertyOp45
 70
     1
102
RTVSPropertyOp46
 70
     1
102
RTVSPropertyOp47
 70
     1
102
RTVSPropertyOp48
 70
     1
102
RTVSPropertyOp49
 70
     1
102
RTVSPropertyOp50
 70
     1
102
RTVSPropertyOp51
 70
     0
102
RTVSPropertyOp52
 70
     0
102
RTVSPropertyOp53
 70
     1
102
RTVSPropertyOp54
 70
     1
102
RTVSPropertyOp55
 70
     1
102
RTVSPropertyOp56
 70
     1
102
RTVSPropertyOp57
 70
     1
102
RTVSPropertyOp58
 70
     1
102
RTVSPropertyOp59
 70
     1
102
RTVSPropertyOp60
 70
     1
102
RTVSPropertyOp61
 70
     1
102
RTVSPropertyOp62
 70
     1
  0
XRECORD
  5
81B3
102
{ACAD_REACTORS
330
81B2
102
}
330
81B2
100
AcDbXrecord
280
     1
102
RTVSPost2010Prop28
280
     0
102
RTVSPost2010PropOp28
 70
     1
102
RTVSPost2010Prop29
280
     1
102
RTVSPost2010PropOp29
 70
     1
102
RTVSPost2010Prop30
280
     1
102
RTVSPost2010PropOp30
 70
     1
102
RTVSPost2010Prop31
280
     0
102
RTVSPost2010PropOp31
 70
     1
102
RTVSPost2010Prop32
280
     0
102
RTVSPost2010PropOp32
 70
     1
102
RTVSPost2010Prop33
280
     0
102
RTVSPost2010PropOp33
 70
     1
102
RTVSPost2010Prop34
280
     0
102
RTVSPost2010PropOp34
 70
     1
102
RTVSPost2010Prop35
280
     0
102
RTVSPost2010PropOp35
 70
     1
102
RTVSPost2010Prop36
280
     0
102
RTVSPost2010PropOp36
 70
     1
102
RTVSPost2010Prop37
 90
       50
102
RTVSPost2010PropOp37
 70
     1
102
RTVSPost2010Prop38
140
0.0
102
RTVSPost2010PropOp38
 70
     1
102
RTVSPost2010Prop39
140
1.0
102
RTVSPost2010PropOp39
 70
     1
102
RTVSPost2010Prop40
 90
        0
102
RTVSPost2010PropOp40
 70
     1
102
RTVSPost2010Prop41ColorIndex
 90
       18
102
RTVSPost2010Prop41ColorRGB
 90
        0
102
RTVSPost2010PropOp41
 70
     1
102
RTVSPost2010Prop42
 90
       50
102
RTVSPost2010PropOp42
 70
     1
102
RTVSPost2010Prop43
 90
        3
102
RTVSPost2010PropOp43
 70
     1
102
RTVSPost2010Prop44ColorIndex
 90
        5
102
RTVSPost2010Prop44ColorRGB
 90
      255
102
RTVSPost2010PropOp44
 70
     1
102
RTVSPost2010Prop45
280
     0
102
RTVSPost2010PropOp45
 70
     1
102
RTVSPost2010Prop46
 90
       50
102
RTVSPost2010PropOp46
 70
     1
102
RTVSPost2010Prop47
 90
       50
102
RTVSPost2010PropOp47
 70
     1
102
RTVSPost2010Prop48
 90
       50
102
RTVSPost2010PropOp48
 70
     1
102
RTVSPost2010Prop49
280
     0
102
RTVSPost2010PropOp49
 70
     1
102
RTVSPost2010Prop50
 90
       50
102
RTVSPost2010PropOp50
 70
     1
102
RTVSPost2010Prop51ColorIndex
 90
      256
102
RTVSPost2010Prop51ColorRGB
 90
-16777216
102
RTVSPost2010PropOp51
 70
     0
102
RTVSPost2010Prop52
140
1.0
102
RTVSPost2010PropOp52
 70
     0
102
RTVSPost2010Prop53
 90
        2
102
RTVSPost2010PropOp53
 70
     1
102
RTVSPost2010Prop54
  1
strokes_ogs.tif
102
RTVSPost2010PropOp54
 70
     1
102
RTVSPost2010Prop55
280
     0
102
RTVSPost2010PropOp55
 70
     1
102
RTVSPost2010Prop56
140
1.0
102
RTVSPost2010PropOp56
 70
     1
102
RTVSPost2010Prop57
140
1.0
102
RTVSPost2010PropOp57
 70
     1
102
RTVSPropertyOp0
 70
     1
102
RTVSPropertyOp1
 70
     1
102
RTVSPropertyOp2
 70
     1
102
RTVSPropertyOp3
 70
     1
102
RTVSPropertyOp4
 70
     1
102
RTVSPropertyOp5
 70
     1
102
RTVSPropertyOp6
 70
     1
102
RTVSPropertyOp7
 70
     1
102
RTVSPropertyOp8
 70
     1
102
RTVSPropertyOp9
 70
     1
102
RTVSPropertyOp10
 70
     1
102
RTVSPropertyOp11
 70
     1
102
RTVSPropertyOp12
 70
     1
102
RTVSPropertyOp13
 70
     1
102
RTVSPropertyOp14
 70
     1
102
RTVSPropertyOp15
 70
     1
102
RTVSPropertyOp16
 70
     1
102
RTVSPropertyOp17
 70
     1
102
RTVSPropertyOp18
 70
     1
102
RTVSPropertyOp19
 70
     1
102
RTVSPropertyOp20
 70
     1
102
RTVSPropertyOp21
 70
     1
102
RTVSPropertyOp22
 70
     1
102
RTVSPropertyOp23
 70
     1
102
RTVSPropertyOp24
 70
     1
102
RTVSPropertyOp25
 70
     1
102
RTVSPropertyOp26
 70
     1
102
RTVSPropertyOp27
 70
     1
102
RTVSPropertyOp28
 70
     1
102
RTVSPropertyOp29
 70
     1
102
RTVSPropertyOp30
 70
     1
102
RTVSPropertyOp31
 70
     1
102
RTVSPropertyOp32
 70
     1
102
RTVSPropertyOp33
 70
     1
102
RTVSPropertyOp34
 70
     1
102
RTVSPropertyOp35
 70
     1
102
RTVSPropertyOp36
 70
     1
102
RTVSPropertyOp37
 70
     1
102
RTVSPropertyOp38
 70
     1
102
RTVSPropertyOp39
 70
     1
102
RTVSPropertyOp40
 70
     1
102
RTVSPropertyOp41
 70
     1
102
RTVSPropertyOp42
 70
     1
102
RTVSPropertyOp43
 70
     1
102
RTVSPropertyOp44
 70
     1
102
RTVSPropertyOp45
 70
     1
102
RTVSPropertyOp46
 70
     1
102
RTVSPropertyOp47
 70
     1
102
RTVSPropertyOp48
 70
     1
102
RTVSPropertyOp49
 70
     1
102
RTVSPropertyOp50
 70
     1
102
RTVSPropertyOp51
 70
     0
102
RTVSPropertyOp52
 70
     0
102
RTVSPropertyOp53
 70
     1
102
RTVSPropertyOp54
 70
     1
102
RTVSPropertyOp55
 70
     1
102
RTVSPropertyOp56
 70
     1
102
RTVSPropertyOp57
 70
     1
102
RTVSPropertyOp58
 70
     1
102
RTVSPropertyOp59
 70
     1
102
RTVSPropertyOp60
 70
     1
102
RTVSPropertyOp61
 70
     1
102
RTVSPropertyOp62
 70
     1
  0
XRECORD
  5
81BB
102
{ACAD_REACTORS
330
81BA
102
}
330
81BA
100
AcDbXrecord
280
     1
102
RTVSPost2010Prop28
280
     0
102
RTVSPost2010PropOp28
 70
     1
102
RTVSPost2010Prop29
280
     1
102
RTVSPost2010PropOp29
 70
     1
102
RTVSPost2010Prop30
280
     1
102
RTVSPost2010PropOp30
 70
     1
102
RTVSPost2010Prop31
280
     0
102
RTVSPost2010PropOp31
 70
     1
102
RTVSPost2010Prop32
280
     0
102
RTVSPost2010PropOp32
 70
     1
102
RTVSPost2010Prop33
280
     0
102
RTVSPost2010PropOp33
 70
     1
102
RTVSPost2010Prop34
280
     0
102
RTVSPost2010PropOp34
 70
     1
102
RTVSPost2010Prop35
280
     0
102
RTVSPost2010PropOp35
 70
     1
102
RTVSPost2010Prop36
280
     0
102
RTVSPost2010PropOp36
 70
     1
102
RTVSPost2010Prop37
 90
       50
102
RTVSPost2010PropOp37
 70
     1
102
RTVSPost2010Prop38
140
0.0
102
RTVSPost2010PropOp38
 70
     1
102
RTVSPost2010Prop39
140
1.0
102
RTVSPost2010PropOp39
 70
     1
102
RTVSPost2010Prop40
 90
        0
102
RTVSPost2010PropOp40
 70
     1
102
RTVSPost2010Prop41ColorIndex
 90
       18
102
RTVSPost2010Prop41ColorRGB
 90
        0
102
RTVSPost2010PropOp41
 70
     1
102
RTVSPost2010Prop42
 90
       50
102
RTVSPost2010PropOp42
 70
     1
102
RTVSPost2010Prop43
 90
        3
102
RTVSPost2010PropOp43
 70
     1
102
RTVSPost2010Prop44ColorIndex
 90
        5
102
RTVSPost2010Prop44ColorRGB
 90
      255
102
RTVSPost2010PropOp44
 70
     1
102
RTVSPost2010Prop45
280
     0
102
RTVSPost2010PropOp45
 70
     1
102
RTVSPost2010Prop46
 90
       50
102
RTVSPost2010PropOp46
 70
     1
102
RTVSPost2010Prop47
 90
       50
102
RTVSPost2010PropOp47
 70
     1
102
RTVSPost2010Prop48
 90
       50
102
RTVSPost2010PropOp48
 70
     1
102
RTVSPost2010Prop49
280
     0
102
RTVSPost2010PropOp49
 70
     1
102
RTVSPost2010Prop50
 90
       50
102
RTVSPost2010PropOp50
 70
     1
102
RTVSPost2010Prop51ColorIndex
 90
      256
102
RTVSPost2010Prop51ColorRGB
 90
-16777216
102
RTVSPost2010PropOp51
 70
     0
102
RTVSPost2010Prop52
140
1.0
102
RTVSPost2010PropOp52
 70
     0
102
RTVSPost2010Prop53
 90
        2
102
RTVSPost2010PropOp53
 70
     1
102
RTVSPost2010Prop54
  1
strokes_ogs.tif
102
RTVSPost2010PropOp54
 70
     1
102
RTVSPost2010Prop55
280
     0
102
RTVSPost2010PropOp55
 70
     1
102
RTVSPost2010Prop56
140
1.0
102
RTVSPost2010PropOp56
 70
     1
102
RTVSPost2010Prop57
140
1.0
102
RTVSPost2010PropOp57
 70
     1
102
RTVSPropertyOp0
 70
     1
102
RTVSPropertyOp1
 70
     1
102
RTVSPropertyOp2
 70
     1
102
RTVSPropertyOp3
 70
     1
102
RTVSPropertyOp4
 70
     1
102
RTVSPropertyOp5
 70
     1
102
RTVSPropertyOp6
 70
     1
102
RTVSPropertyOp7
 70
     1
102
RTVSPropertyOp8
 70
     1
102
RTVSPropertyOp9
 70
     1
102
RTVSPropertyOp10
 70
     1
102
RTVSPropertyOp11
 70
     1
102
RTVSPropertyOp12
 70
     1
102
RTVSPropertyOp13
 70
     1
102
RTVSPropertyOp14
 70
     1
102
RTVSPropertyOp15
 70
     1
102
RTVSPropertyOp16
 70
     1
102
RTVSPropertyOp17
 70
     1
102
RTVSPropertyOp18
 70
     1
102
RTVSPropertyOp19
 70
     1
102
RTVSPropertyOp20
 70
     1
102
RTVSPropertyOp21
 70
     1
102
RTVSPropertyOp22
 70
     1
102
RTVSPropertyOp23
 70
     1
102
RTVSPropertyOp24
 70
     1
102
RTVSPropertyOp25
 70
     1
102
RTVSPropertyOp26
 70
     1
102
RTVSPropertyOp27
 70
     1
102
RTVSPropertyOp28
 70
     1
102
RTVSPropertyOp29
 70
     1
102
RTVSPropertyOp30
 70
     1
102
RTVSPropertyOp31
 70
     1
102
RTVSPropertyOp32
 70
     1
102
RTVSPropertyOp33
 70
     1
102
RTVSPropertyOp34
 70
     1
102
RTVSPropertyOp35
 70
     1
102
RTVSPropertyOp36
 70
     1
102
RTVSPropertyOp37
 70
     1
102
RTVSPropertyOp38
 70
     1
102
RTVSPropertyOp39
 70
     1
102
RTVSPropertyOp40
 70
     1
102
RTVSPropertyOp41
 70
     1
102
RTVSPropertyOp42
 70
     1
102
RTVSPropertyOp43
 70
     1
102
RTVSPropertyOp44
 70
     1
102
RTVSPropertyOp45
 70
     1
102
RTVSPropertyOp46
 70
     1
102
RTVSPropertyOp47
 70
     1
102
RTVSPropertyOp48
 70
     1
102
RTVSPropertyOp49
 70
     1
102
RTVSPropertyOp50
 70
     1
102
RTVSPropertyOp51
 70
     0
102
RTVSPropertyOp52
 70
     0
102
RTVSPropertyOp53
 70
     1
102
RTVSPropertyOp54
 70
     1
102
RTVSPropertyOp55
 70
     1
102
RTVSPropertyOp56
 70
     1
102
RTVSPropertyOp57
 70
     1
102
RTVSPropertyOp58
 70
     1
102
RTVSPropertyOp59
 70
     1
102
RTVSPropertyOp60
 70
     1
102
RTVSPropertyOp61
 70
     1
102
RTVSPropertyOp62
 70
     1
  0
XRECORD
  5
81CF
102
{ACAD_REACTORS
330
81CE
102
}
330
81CE
100
AcDbXrecord
280
     1
102
RTVSPost2010Prop28
280
     0
102
RTVSPost2010PropOp28
 70
     1
102
RTVSPost2010Prop29
280
     1
102
RTVSPost2010PropOp29
 70
     1
102
RTVSPost2010Prop30
280
     1
102
RTVSPost2010PropOp30
 70
     1
102
RTVSPost2010Prop31
280
     0
102
RTVSPost2010PropOp31
 70
     1
102
RTVSPost2010Prop32
280
     0
102
RTVSPost2010PropOp32
 70
     1
102
RTVSPost2010Prop33
280
     0
102
RTVSPost2010PropOp33
 70
     1
102
RTVSPost2010Prop34
280
     0
102
RTVSPost2010PropOp34
 70
     1
102
RTVSPost2010Prop35
280
     0
102
RTVSPost2010PropOp35
 70
     1
102
RTVSPost2010Prop36
280
     0
102
RTVSPost2010PropOp36
 70
     1
102
RTVSPost2010Prop37
 90
       50
102
RTVSPost2010PropOp37
 70
     1
102
RTVSPost2010Prop38
140
0.0
102
RTVSPost2010PropOp38
 70
     1
102
RTVSPost2010Prop39
140
1.0
102
RTVSPost2010PropOp39
 70
     1
102
RTVSPost2010Prop40
 90
        0
102
RTVSPost2010PropOp40
 70
     1
102
RTVSPost2010Prop41ColorIndex
 90
       18
102
RTVSPost2010Prop41ColorRGB
 90
        0
102
RTVSPost2010PropOp41
 70
     1
102
RTVSPost2010Prop42
 90
       50
102
RTVSPost2010PropOp42
 70
     1
102
RTVSPost2010Prop43
 90
        3
102
RTVSPost2010PropOp43
 70
     1
102
RTVSPost2010Prop44ColorIndex
 90
        5
102
RTVSPost2010Prop44ColorRGB
 90
      255
102
RTVSPost2010PropOp44
 70
     1
102
RTVSPost2010Prop45
280
     0
102
RTVSPost2010PropOp45
 70
     1
102
RTVSPost2010Prop46
 90
       50
102
RTVSPost2010PropOp46
 70
     1
102
RTVSPost2010Prop47
 90
       50
102
RTVSPost2010PropOp47
 70
     1
102
RTVSPost2010Prop48
 90
       50
102
RTVSPost2010PropOp48
 70
     1
102
RTVSPost2010Prop49
280
     0
102
RTVSPost2010PropOp49
 70
     1
102
RTVSPost2010Prop50
 90
       50
102
RTVSPost2010PropOp50
 70
     1
102
RTVSPost2010Prop51ColorIndex
 90
      256
102
RTVSPost2010Prop51ColorRGB
 90
-16777216
102
RTVSPost2010PropOp51
 70
     0
102
RTVSPost2010Prop52
140
1.0
102
RTVSPost2010PropOp52
 70
     0
102
RTVSPost2010Prop53
 90
        2
102
RTVSPost2010PropOp53
 70
     1
102
RTVSPost2010Prop54
  1
strokes_ogs.tif
102
RTVSPost2010PropOp54
 70
     1
102
RTVSPost2010Prop55
280
     0
102
RTVSPost2010PropOp55
 70
     1
102
RTVSPost2010Prop56
140
1.0
102
RTVSPost2010PropOp56
 70
     1
102
RTVSPost2010Prop57
140
1.0
102
RTVSPost2010PropOp57
 70
     1
102
RTVSPropertyOp0
 70
     0
102
RTVSPropertyOp1
 70
     0
102
RTVSPropertyOp2
 70
     0
102
RTVSPropertyOp3
 70
     0
102
RTVSPropertyOp4
 70
     0
102
RTVSPropertyOp5
 70
     0
102
RTVSPropertyOp6
 70
     0
102
RTVSPropertyOp7
 70
     0
102
RTVSPropertyOp8
 70
     0
102
RTVSPropertyOp9
 70
     0
102
RTVSPropertyOp10
 70
     0
102
RTVSPropertyOp11
 70
     0
102
RTVSPropertyOp12
 70
     0
102
RTVSPropertyOp13
 70
     0
102
RTVSPropertyOp14
 70
     2
102
RTVSPropertyOp15
 70
     0
102
RTVSPropertyOp16
 70
     0
102
RTVSPropertyOp17
 70
     0
102
RTVSPropertyOp18
 70
     0
102
RTVSPropertyOp19
 70
     0
102
RTVSPropertyOp20
 70
     0
102
RTVSPropertyOp21
 70
     0
102
RTVSPropertyOp22
 70
     0
102
RTVSPropertyOp23
 70
     0
102
RTVSPropertyOp24
 70
     0
102
RTVSPropertyOp25
 70
     0
102
RTVSPropertyOp26
 70
     0
102
RTVSPropertyOp27
 70
     0
102
RTVSPropertyOp28
 70
     1
102
RTVSPropertyOp29
 70
     1
102
RTVSPropertyOp30
 70
     1
102
RTVSPropertyOp31
 70
     1
102
RTVSPropertyOp32
 70
     1
102
RTVSPropertyOp33
 70
     1
102
RTVSPropertyOp34
 70
     1
102
RTVSPropertyOp35
 70
     1
102
RTVSPropertyOp36
 70
     1
102
RTVSPropertyOp37
 70
     1
102
RTVSPropertyOp38
 70
     1
102
RTVSPropertyOp39
 70
     1
102
RTVSPropertyOp40
 70
     1
102
RTVSPropertyOp41
 70
     1
102
RTVSPropertyOp42
 70
     1
102
RTVSPropertyOp43
 70
     1
102
RTVSPropertyOp44
 70
     1
102
RTVSPropertyOp45
 70
     1
102
RTVSPropertyOp46
 70
     1
102
RTVSPropertyOp47
 70
     1
102
RTVSPropertyOp48
 70
     1
102
RTVSPropertyOp49
 70
     1
102
RTVSPropertyOp50
 70
     1
102
RTVSPropertyOp51
 70
     0
102
RTVSPropertyOp52
 70
     0
102
RTVSPropertyOp53
 70
     1
102
RTVSPropertyOp54
 70
     1
102
RTVSPropertyOp55
 70
     1
102
RTVSPropertyOp56
 70
     1
102
RTVSPropertyOp57
 70
     1
102
RTVSPropertyOp58
 70
     1
102
RTVSPropertyOp59
 70
     1
102
RTVSPropertyOp60
 70
     1
102
RTVSPropertyOp61
 70
     1
102
RTVSPropertyOp62
 70
     1
  0
XRECORD
  5
81C7
102
{ACAD_REACTORS
330
81C6
102
}
330
81C6
100
AcDbXrecord
280
     1
102
RTVSPost2010Prop28
280
     0
102
RTVSPost2010PropOp28
 70
     1
102
RTVSPost2010Prop29
280
     1
102
RTVSPost2010PropOp29
 70
     1
102
RTVSPost2010Prop30
280
     1
102
RTVSPost2010PropOp30
 70
     1
102
RTVSPost2010Prop31
280
     0
102
RTVSPost2010PropOp31
 70
     1
102
RTVSPost2010Prop32
280
     0
102
RTVSPost2010PropOp32
 70
     1
102
RTVSPost2010Prop33
280
     0
102
RTVSPost2010PropOp33
 70
     1
102
RTVSPost2010Prop34
280
     0
102
RTVSPost2010PropOp34
 70
     1
102
RTVSPost2010Prop35
280
     0
102
RTVSPost2010PropOp35
 70
     1
102
RTVSPost2010Prop36
280
     0
102
RTVSPost2010PropOp36
 70
     1
102
RTVSPost2010Prop37
 90
       50
102
RTVSPost2010PropOp37
 70
     1
102
RTVSPost2010Prop38
140
0.0
102
RTVSPost2010PropOp38
 70
     1
102
RTVSPost2010Prop39
140
1.0
102
RTVSPost2010PropOp39
 70
     1
102
RTVSPost2010Prop40
 90
        0
102
RTVSPost2010PropOp40
 70
     1
102
RTVSPost2010Prop41ColorIndex
 90
       18
102
RTVSPost2010Prop41ColorRGB
 90
        0
102
RTVSPost2010PropOp41
 70
     1
102
RTVSPost2010Prop42
 90
       50
102
RTVSPost2010PropOp42
 70
     1
102
RTVSPost2010Prop43
 90
        3
102
RTVSPost2010PropOp43
 70
     1
102
RTVSPost2010Prop44ColorIndex
 90
        5
102
RTVSPost2010Prop44ColorRGB
 90
      255
102
RTVSPost2010PropOp44
 70
     1
102
RTVSPost2010Prop45
280
     0
102
RTVSPost2010PropOp45
 70
     1
102
RTVSPost2010Prop46
 90
       50
102
RTVSPost2010PropOp46
 70
     1
102
RTVSPost2010Prop47
 90
       50
102
RTVSPost2010PropOp47
 70
     1
102
RTVSPost2010Prop48
 90
       50
102
RTVSPost2010PropOp48
 70
     1
102
RTVSPost2010Prop49
280
     0
102
RTVSPost2010PropOp49
 70
     1
102
RTVSPost2010Prop50
 90
       50
102
RTVSPost2010PropOp50
 70
     1
102
RTVSPost2010Prop51ColorIndex
 90
      256
102
RTVSPost2010Prop51ColorRGB
 90
-16777216
102
RTVSPost2010PropOp51
 70
     0
102
RTVSPost2010Prop52
140
1.0
102
RTVSPost2010PropOp52
 70
     0
102
RTVSPost2010Prop53
 90
        2
102
RTVSPost2010PropOp53
 70
     1
102
RTVSPost2010Prop54
  1
strokes_ogs.tif
102
RTVSPost2010PropOp54
 70
     1
102
RTVSPost2010Prop55
280
     0
102
RTVSPost2010PropOp55
 70
     1
102
RTVSPost2010Prop56
140
1.0
102
RTVSPost2010PropOp56
 70
     1
102
RTVSPost2010Prop57
140
1.0
102
RTVSPost2010PropOp57
 70
     1
102
RTVSPropertyOp0
 70
     1
102
RTVSPropertyOp1
 70
     1
102
RTVSPropertyOp2
 70
     1
102
RTVSPropertyOp3
 70
     1
102
RTVSPropertyOp4
 70
     1
102
RTVSPropertyOp5
 70
     1
102
RTVSPropertyOp6
 70
     1
102
RTVSPropertyOp7
 70
     1
102
RTVSPropertyOp8
 70
     1
102
RTVSPropertyOp9
 70
     1
102
RTVSPropertyOp10
 70
     1
102
RTVSPropertyOp11
 70
     1
102
RTVSPropertyOp12
 70
     1
102
RTVSPropertyOp13
 70
     1
102
RTVSPropertyOp14
 70
     1
102
RTVSPropertyOp15
 70
     1
102
RTVSPropertyOp16
 70
     1
102
RTVSPropertyOp17
 70
     1
102
RTVSPropertyOp18
 70
     1
102
RTVSPropertyOp19
 70
     1
102
RTVSPropertyOp20
 70
     1
102
RTVSPropertyOp21
 70
     1
102
RTVSPropertyOp22
 70
     1
102
RTVSPropertyOp23
 70
     1
102
RTVSPropertyOp24
 70
     1
102
RTVSPropertyOp25
 70
     1
102
RTVSPropertyOp26
 70
     1
102
RTVSPropertyOp27
 70
     1
102
RTVSPropertyOp28
 70
     1
102
RTVSPropertyOp29
 70
     1
102
RTVSPropertyOp30
 70
     1
102
RTVSPropertyOp31
 70
     1
102
RTVSPropertyOp32
 70
     1
102
RTVSPropertyOp33
 70
     1
102
RTVSPropertyOp34
 70
     1
102
RTVSPropertyOp35
 70
     1
102
RTVSPropertyOp36
 70
     1
102
RTVSPropertyOp37
 70
     1
102
RTVSPropertyOp38
 70
     1
102
RTVSPropertyOp39
 70
     1
102
RTVSPropertyOp40
 70
     1
102
RTVSPropertyOp41
 70
     1
102
RTVSPropertyOp42
 70
     1
102
RTVSPropertyOp43
 70
     1
102
RTVSPropertyOp44
 70
     1
102
RTVSPropertyOp45
 70
     1
102
RTVSPropertyOp46
 70
     1
102
RTVSPropertyOp47
 70
     1
102
RTVSPropertyOp48
 70
     1
102
RTVSPropertyOp49
 70
     1
102
RTVSPropertyOp50
 70
     1
102
RTVSPropertyOp51
 70
     0
102
RTVSPropertyOp52
 70
     0
102
RTVSPropertyOp53
 70
     1
102
RTVSPropertyOp54
 70
     1
102
RTVSPropertyOp55
 70
     1
102
RTVSPropertyOp56
 70
     1
102
RTVSPropertyOp57
 70
     1
102
RTVSPropertyOp58
 70
     1
102
RTVSPropertyOp59
 70
     1
102
RTVSPropertyOp60
 70
     1
102
RTVSPropertyOp61
 70
     1
102
RTVSPropertyOp62
 70
     1
  0
XRECORD
  5
81D1
102
{ACAD_REACTORS
330
81D0
102
}
330
81D0
100
AcDbXrecord
280
     1
102
RTVSPost2010Prop28
280
     0
102
RTVSPost2010PropOp28
 70
     1
102
RTVSPost2010Prop29
280
     1
102
RTVSPost2010PropOp29
 70
     1
102
RTVSPost2010Prop30
280
     1
102
RTVSPost2010PropOp30
 70
     1
102
RTVSPost2010Prop31
280
     0
102
RTVSPost2010PropOp31
 70
     1
102
RTVSPost2010Prop32
280
     0
102
RTVSPost2010PropOp32
 70
     1
102
RTVSPost2010Prop33
280
     0
102
RTVSPost2010PropOp33
 70
     1
102
RTVSPost2010Prop34
280
     0
102
RTVSPost2010PropOp34
 70
     1
102
RTVSPost2010Prop35
280
     0
102
RTVSPost2010PropOp35
 70
     1
102
RTVSPost2010Prop36
280
     0
102
RTVSPost2010PropOp36
 70
     1
102
RTVSPost2010Prop37
 90
       50
102
RTVSPost2010PropOp37
 70
     1
102
RTVSPost2010Prop38
140
0.0
102
RTVSPost2010PropOp38
 70
     1
102
RTVSPost2010Prop39
140
1.0
102
RTVSPost2010PropOp39
 70
     1
102
RTVSPost2010Prop40
 90
        0
102
RTVSPost2010PropOp40
 70
     1
102
RTVSPost2010Prop41ColorIndex
 90
       18
102
RTVSPost2010Prop41ColorRGB
 90
        0
102
RTVSPost2010PropOp41
 70
     1
102
RTVSPost2010Prop42
 90
       50
102
RTVSPost2010PropOp42
 70
     1
102
RTVSPost2010Prop43
 90
        3
102
RTVSPost2010PropOp43
 70
     1
102
RTVSPost2010Prop44ColorIndex
 90
        5
102
RTVSPost2010Prop44ColorRGB
 90
      255
102
RTVSPost2010PropOp44
 70
     1
102
RTVSPost2010Prop45
280
     0
102
RTVSPost2010PropOp45
 70
     1
102
RTVSPost2010Prop46
 90
       50
102
RTVSPost2010PropOp46
 70
     1
102
RTVSPost2010Prop47
 90
       50
102
RTVSPost2010PropOp47
 70
     1
102
RTVSPost2010Prop48
 90
       50
102
RTVSPost2010PropOp48
 70
     1
102
RTVSPost2010Prop49
280
     0
102
RTVSPost2010PropOp49
 70
     1
102
RTVSPost2010Prop50
 90
       50
102
RTVSPost2010PropOp50
 70
     1
102
RTVSPost2010Prop51ColorIndex
 90
      256
102
RTVSPost2010Prop51ColorRGB
 90
-16777216
102
RTVSPost2010PropOp51
 70
     0
102
RTVSPost2010Prop52
140
1.0
102
RTVSPost2010PropOp52
 70
     0
102
RTVSPost2010Prop53
 90
        2
102
RTVSPost2010PropOp53
 70
     1
102
RTVSPost2010Prop54
  1
strokes_ogs.tif
102
RTVSPost2010PropOp54
 70
     1
102
RTVSPost2010Prop55
280
     0
102
RTVSPost2010PropOp55
 70
     1
102
RTVSPost2010Prop56
140
1.0
102
RTVSPost2010PropOp56
 70
     1
102
RTVSPost2010Prop57
140
1.0
102
RTVSPost2010PropOp57
 70
     1
102
RTVSPropertyOp0
 70
     0
102
RTVSPropertyOp1
 70
     0
102
RTVSPropertyOp2
 70
     0
102
RTVSPropertyOp3
 70
     0
102
RTVSPropertyOp4
 70
     0
102
RTVSPropertyOp5
 70
     0
102
RTVSPropertyOp6
 70
     0
102
RTVSPropertyOp7
 70
     0
102
RTVSPropertyOp8
 70
     0
102
RTVSPropertyOp9
 70
     0
102
RTVSPropertyOp10
 70
     0
102
RTVSPropertyOp11
 70
     0
102
RTVSPropertyOp12
 70
     0
102
RTVSPropertyOp13
 70
     0
102
RTVSPropertyOp14
 70
     2
102
RTVSPropertyOp15
 70
     0
102
RTVSPropertyOp16
 70
     0
102
RTVSPropertyOp17
 70
     0
102
RTVSPropertyOp18
 70
     0
102
RTVSPropertyOp19
 70
     0
102
RTVSPropertyOp20
 70
     0
102
RTVSPropertyOp21
 70
     0
102
RTVSPropertyOp22
 70
     0
102
RTVSPropertyOp23
 70
     0
102
RTVSPropertyOp24
 70
     0
102
RTVSPropertyOp25
 70
     0
102
RTVSPropertyOp26
 70
     0
102
RTVSPropertyOp27
 70
     0
102
RTVSPropertyOp28
 70
     1
102
RTVSPropertyOp29
 70
     1
102
RTVSPropertyOp30
 70
     1
102
RTVSPropertyOp31
 70
     1
102
RTVSPropertyOp32
 70
     1
102
RTVSPropertyOp33
 70
     1
102
RTVSPropertyOp34
 70
     1
102
RTVSPropertyOp35
 70
     1
102
RTVSPropertyOp36
 70
     1
102
RTVSPropertyOp37
 70
     1
102
RTVSPropertyOp38
 70
     1
102
RTVSPropertyOp39
 70
     1
102
RTVSPropertyOp40
 70
     1
102
RTVSPropertyOp41
 70
     1
102
RTVSPropertyOp42
 70
     1
102
RTVSPropertyOp43
 70
     1
102
RTVSPropertyOp44
 70
     1
102
RTVSPropertyOp45
 70
     1
102
RTVSPropertyOp46
 70
     1
102
RTVSPropertyOp47
 70
     1
102
RTVSPropertyOp48
 70
     1
102
RTVSPropertyOp49
 70
     1
102
RTVSPropertyOp50
 70
     1
102
RTVSPropertyOp51
 70
     0
102
RTVSPropertyOp52
 70
     0
102
RTVSPropertyOp53
 70
     1
102
RTVSPropertyOp54
 70
     1
102
RTVSPropertyOp55
 70
     1
102
RTVSPropertyOp56
 70
     1
102
RTVSPropertyOp57
 70
     1
102
RTVSPropertyOp58
 70
     1
102
RTVSPropertyOp59
 70
     1
102
RTVSPropertyOp60
 70
     1
102
RTVSPropertyOp61
 70
     1
102
RTVSPropertyOp62
 70
     1
  0
XRECORD
  5
81BF
102
{ACAD_REACTORS
330
81BE
102
}
330
81BE
100
AcDbXrecord
280
     1
102
RTVSPost2010Prop28
280
     0
102
RTVSPost2010PropOp28
 70
     1
102
RTVSPost2010Prop29
280
     1
102
RTVSPost2010PropOp29
 70
     1
102
RTVSPost2010Prop30
280
     1
102
RTVSPost2010PropOp30
 70
     1
102
RTVSPost2010Prop31
280
     0
102
RTVSPost2010PropOp31
 70
     1
102
RTVSPost2010Prop32
280
     0
102
RTVSPost2010PropOp32
 70
     1
102
RTVSPost2010Prop33
280
     0
102
RTVSPost2010PropOp33
 70
     1
102
RTVSPost2010Prop34
280
     0
102
RTVSPost2010PropOp34
 70
     1
102
RTVSPost2010Prop35
280
     0
102
RTVSPost2010PropOp35
 70
     1
102
RTVSPost2010Prop36
280
     0
102
RTVSPost2010PropOp36
 70
     1
102
RTVSPost2010Prop37
 90
       50
102
RTVSPost2010PropOp37
 70
     1
102
RTVSPost2010Prop38
140
0.0
102
RTVSPost2010PropOp38
 70
     1
102
RTVSPost2010Prop39
140
1.0
102
RTVSPost2010PropOp39
 70
     1
102
RTVSPost2010Prop40
 90
        0
102
RTVSPost2010PropOp40
 70
     1
102
RTVSPost2010Prop41ColorIndex
 90
       18
102
RTVSPost2010Prop41ColorRGB
 90
        0
102
RTVSPost2010PropOp41
 70
     1
102
RTVSPost2010Prop42
 90
       50
102
RTVSPost2010PropOp42
 70
     1
102
RTVSPost2010Prop43
 90
        3
102
RTVSPost2010PropOp43
 70
     1
102
RTVSPost2010Prop44ColorIndex
 90
        5
102
RTVSPost2010Prop44ColorRGB
 90
      255
102
RTVSPost2010PropOp44
 70
     1
102
RTVSPost2010Prop45
280
     0
102
RTVSPost2010PropOp45
 70
     1
102
RTVSPost2010Prop46
 90
       50
102
RTVSPost2010PropOp46
 70
     1
102
RTVSPost2010Prop47
 90
       50
102
RTVSPost2010PropOp47
 70
     1
102
RTVSPost2010Prop48
 90
       50
102
RTVSPost2010PropOp48
 70
     1
102
RTVSPost2010Prop49
280
     0
102
RTVSPost2010PropOp49
 70
     1
102
RTVSPost2010Prop50
 90
       50
102
RTVSPost2010PropOp50
 70
     1
102
RTVSPost2010Prop51ColorIndex
 90
      256
102
RTVSPost2010Prop51ColorRGB
 90
-16777216
102
RTVSPost2010PropOp51
 70
     0
102
RTVSPost2010Prop52
140
1.0
102
RTVSPost2010PropOp52
 70
     0
102
RTVSPost2010Prop53
 90
        2
102
RTVSPost2010PropOp53
 70
     1
102
RTVSPost2010Prop54
  1
strokes_ogs.tif
102
RTVSPost2010PropOp54
 70
     1
102
RTVSPost2010Prop55
280
     0
102
RTVSPost2010PropOp55
 70
     1
102
RTVSPost2010Prop56
140
1.0
102
RTVSPost2010PropOp56
 70
     1
102
RTVSPost2010Prop57
140
1.0
102
RTVSPost2010PropOp57
 70
     1
102
RTVSPropertyOp0
 70
     1
102
RTVSPropertyOp1
 70
     1
102
RTVSPropertyOp2
 70
     1
102
RTVSPropertyOp3
 70
     1
102
RTVSPropertyOp4
 70
     1
102
RTVSPropertyOp5
 70
     1
102
RTVSPropertyOp6
 70
     1
102
RTVSPropertyOp7
 70
     1
102
RTVSPropertyOp8
 70
     1
102
RTVSPropertyOp9
 70
     1
102
RTVSPropertyOp10
 70
     1
102
RTVSPropertyOp11
 70
     1
102
RTVSPropertyOp12
 70
     1
102
RTVSPropertyOp13
 70
     1
102
RTVSPropertyOp14
 70
     1
102
RTVSPropertyOp15
 70
     1
102
RTVSPropertyOp16
 70
     1
102
RTVSPropertyOp17
 70
     1
102
RTVSPropertyOp18
 70
     1
102
RTVSPropertyOp19
 70
     1
102
RTVSPropertyOp20
 70
     1
102
RTVSPropertyOp21
 70
     1
102
RTVSPropertyOp22
 70
     1
102
RTVSPropertyOp23
 70
     1
102
RTVSPropertyOp24
 70
     1
102
RTVSPropertyOp25
 70
     1
102
RTVSPropertyOp26
 70
     1
102
RTVSPropertyOp27
 70
     1
102
RTVSPropertyOp28
 70
     1
102
RTVSPropertyOp29
 70
     1
102
RTVSPropertyOp30
 70
     1
102
RTVSPropertyOp31
 70
     1
102
RTVSPropertyOp32
 70
     1
102
RTVSPropertyOp33
 70
     1
102
RTVSPropertyOp34
 70
     1
102
RTVSPropertyOp35
 70
     1
102
RTVSPropertyOp36
 70
     1
102
RTVSPropertyOp37
 70
     1
102
RTVSPropertyOp38
 70
     1
102
RTVSPropertyOp39
 70
     1
102
RTVSPropertyOp40
 70
     1
102
RTVSPropertyOp41
 70
     1
102
RTVSPropertyOp42
 70
     1
102
RTVSPropertyOp43
 70
     1
102
RTVSPropertyOp44
 70
     1
102
RTVSPropertyOp45
 70
     1
102
RTVSPropertyOp46
 70
     1
102
RTVSPropertyOp47
 70
     1
102
RTVSPropertyOp48
 70
     1
102
RTVSPropertyOp49
 70
     1
102
RTVSPropertyOp50
 70
     1
102
RTVSPropertyOp51
 70
     0
102
RTVSPropertyOp52
 70
     0
102
RTVSPropertyOp53
 70
     1
102
RTVSPropertyOp54
 70
     1
102
RTVSPropertyOp55
 70
     1
102
RTVSPropertyOp56
 70
     1
102
RTVSPropertyOp57
 70
     1
102
RTVSPropertyOp58
 70
     1
102
RTVSPropertyOp59
 70
     1
102
RTVSPropertyOp60
 70
     1
102
RTVSPropertyOp61
 70
     1
102
RTVSPropertyOp62
 70
     1
  0
XRECORD
  5
81DD
102
{ACAD_REACTORS
330
81DC
102
}
330
81DC
100
AcDbXrecord
280
     1
102
RTVSPost2010Prop28
280
     0
102
RTVSPost2010PropOp28
 70
     1
102
RTVSPost2010Prop29
280
     1
102
RTVSPost2010PropOp29
 70
     1
102
RTVSPost2010Prop30
280
     1
102
RTVSPost2010PropOp30
 70
     1
102
RTVSPost2010Prop31
280
     0
102
RTVSPost2010PropOp31
 70
     1
102
RTVSPost2010Prop32
280
     0
102
RTVSPost2010PropOp32
 70
     1
102
RTVSPost2010Prop33
280
     0
102
RTVSPost2010PropOp33
 70
     1
102
RTVSPost2010Prop34
280
     0
102
RTVSPost2010PropOp34
 70
     1
102
RTVSPost2010Prop35
280
     0
102
RTVSPost2010PropOp35
 70
     1
102
RTVSPost2010Prop36
280
     0
102
RTVSPost2010PropOp36
 70
     1
102
RTVSPost2010Prop37
 90
       50
102
RTVSPost2010PropOp37
 70
     1
102
RTVSPost2010Prop38
140
0.0
102
RTVSPost2010PropOp38
 70
     1
102
RTVSPost2010Prop39
140
1.0
102
RTVSPost2010PropOp39
 70
     1
102
RTVSPost2010Prop40
 90
        0
102
RTVSPost2010PropOp40
 70
     1
102
RTVSPost2010Prop41ColorIndex
 90
       18
102
RTVSPost2010Prop41ColorRGB
 90
        0
102
RTVSPost2010PropOp41
 70
     1
102
RTVSPost2010Prop42
 90
       50
102
RTVSPost2010PropOp42
 70
     1
102
RTVSPost2010Prop43
 90
        3
102
RTVSPost2010PropOp43
 70
     1
102
RTVSPost2010Prop44ColorIndex
 90
        5
102
RTVSPost2010Prop44ColorRGB
 90
      255
102
RTVSPost2010PropOp44
 70
     1
102
RTVSPost2010Prop45
280
     0
102
RTVSPost2010PropOp45
 70
     1
102
RTVSPost2010Prop46
 90
       50
102
RTVSPost2010PropOp46
 70
     1
102
RTVSPost2010Prop47
 90
       50
102
RTVSPost2010PropOp47
 70
     1
102
RTVSPost2010Prop48
 90
       50
102
RTVSPost2010PropOp48
 70
     1
102
RTVSPost2010Prop49
280
     0
102
RTVSPost2010PropOp49
 70
     1
102
RTVSPost2010Prop50
 90
       50
102
RTVSPost2010PropOp50
 70
     1
102
RTVSPost2010Prop51ColorIndex
 90
      256
102
RTVSPost2010Prop51ColorRGB
 90
-16777216
102
RTVSPost2010PropOp51
 70
     0
102
RTVSPost2010Prop52
140
1.0
102
RTVSPost2010PropOp52
 70
     0
102
RTVSPost2010Prop53
 90
        2
102
RTVSPost2010PropOp53
 70
     1
102
RTVSPost2010Prop54
  1
strokes_ogs.tif
102
RTVSPost2010PropOp54
 70
     1
102
RTVSPost2010Prop55
280
     0
102
RTVSPost2010PropOp55
 70
     1
102
RTVSPost2010Prop56
140
1.0
102
RTVSPost2010PropOp56
 70
     1
102
RTVSPost2010Prop57
140
1.0
102
RTVSPost2010PropOp57
 70
     1
102
RTVSPropertyOp0
 70
     1
102
RTVSPropertyOp1
 70
     1
102
RTVSPropertyOp2
 70
     1
102
RTVSPropertyOp3
 70
     1
102
RTVSPropertyOp4
 70
     1
102
RTVSPropertyOp5
 70
     1
102
RTVSPropertyOp6
 70
     1
102
RTVSPropertyOp7
 70
     1
102
RTVSPropertyOp8
 70
     1
102
RTVSPropertyOp9
 70
     1
102
RTVSPropertyOp10
 70
     1
102
RTVSPropertyOp11
 70
     1
102
RTVSPropertyOp12
 70
     1
102
RTVSPropertyOp13
 70
     1
102
RTVSPropertyOp14
 70
     1
102
RTVSPropertyOp15
 70
     1
102
RTVSPropertyOp16
 70
     1
102
RTVSPropertyOp17
 70
     1
102
RTVSPropertyOp18
 70
     1
102
RTVSPropertyOp19
 70
     1
102
RTVSPropertyOp20
 70
     1
102
RTVSPropertyOp21
 70
     1
102
RTVSPropertyOp22
 70
     1
102
RTVSPropertyOp23
 70
     1
102
RTVSPropertyOp24
 70
     1
102
RTVSPropertyOp25
 70
     1
102
RTVSPropertyOp26
 70
     1
102
RTVSPropertyOp27
 70
     1
102
RTVSPropertyOp28
 70
     1
102
RTVSPropertyOp29
 70
     1
102
RTVSPropertyOp30
 70
     1
102
RTVSPropertyOp31
 70
     1
102
RTVSPropertyOp32
 70
     1
102
RTVSPropertyOp33
 70
     1
102
RTVSPropertyOp34
 70
     1
102
RTVSPropertyOp35
 70
     1
102
RTVSPropertyOp36
 70
     1
102
RTVSPropertyOp37
 70
     1
102
RTVSPropertyOp38
 70
     1
102
RTVSPropertyOp39
 70
     1
102
RTVSPropertyOp40
 70
     1
102
RTVSPropertyOp41
 70
     1
102
RTVSPropertyOp42
 70
     1
102
RTVSPropertyOp43
 70
     1
102
RTVSPropertyOp44
 70
     1
102
RTVSPropertyOp45
 70
     1
102
RTVSPropertyOp46
 70
     1
102
RTVSPropertyOp47
 70
     1
102
RTVSPropertyOp48
 70
     1
102
RTVSPropertyOp49
 70
     1
102
RTVSPropertyOp50
 70
     1
102
RTVSPropertyOp51
 70
     0
102
RTVSPropertyOp52
 70
     0
102
RTVSPropertyOp53
 70
     1
102
RTVSPropertyOp54
 70
     1
102
RTVSPropertyOp55
 70
     1
102
RTVSPropertyOp56
 70
     1
102
RTVSPropertyOp57
 70
     1
102
RTVSPropertyOp58
 70
     1
102
RTVSPropertyOp59
 70
     1
102
RTVSPropertyOp60
 70
     1
102
RTVSPropertyOp61
 70
     1
102
RTVSPropertyOp62
 70
     1
  0
XRECORD
  5
81DB
102
{ACAD_REACTORS
330
81DA
102
}
330
81DA
100
AcDbXrecord
280
     1
102
RTVSPost2010Prop28
280
     0
102
RTVSPost2010PropOp28
 70
     1
102
RTVSPost2010Prop29
280
     1
102
RTVSPost2010PropOp29
 70
     1
102
RTVSPost2010Prop30
280
     1
102
RTVSPost2010PropOp30
 70
     1
102
RTVSPost2010Prop31
280
     0
102
RTVSPost2010PropOp31
 70
     1
102
RTVSPost2010Prop32
280
     0
102
RTVSPost2010PropOp32
 70
     1
102
RTVSPost2010Prop33
280
     0
102
RTVSPost2010PropOp33
 70
     1
102
RTVSPost2010Prop34
280
     0
102
RTVSPost2010PropOp34
 70
     1
102
RTVSPost2010Prop35
280
     0
102
RTVSPost2010PropOp35
 70
     1
102
RTVSPost2010Prop36
280
     0
102
RTVSPost2010PropOp36
 70
     1
102
RTVSPost2010Prop37
 90
       50
102
RTVSPost2010PropOp37
 70
     1
102
RTVSPost2010Prop38
140
0.0
102
RTVSPost2010PropOp38
 70
     1
102
RTVSPost2010Prop39
140
1.0
102
RTVSPost2010PropOp39
 70
     1
102
RTVSPost2010Prop40
 90
        0
102
RTVSPost2010PropOp40
 70
     1
102
RTVSPost2010Prop41ColorIndex
 90
       18
102
RTVSPost2010Prop41ColorRGB
 90
        0
102
RTVSPost2010PropOp41
 70
     1
102
RTVSPost2010Prop42
 90
       50
102
RTVSPost2010PropOp42
 70
     1
102
RTVSPost2010Prop43
 90
        3
102
RTVSPost2010PropOp43
 70
     1
102
RTVSPost2010Prop44ColorIndex
 90
        5
102
RTVSPost2010Prop44ColorRGB
 90
      255
102
RTVSPost2010PropOp44
 70
     1
102
RTVSPost2010Prop45
280
     0
102
RTVSPost2010PropOp45
 70
     1
102
RTVSPost2010Prop46
 90
       50
102
RTVSPost2010PropOp46
 70
     1
102
RTVSPost2010Prop47
 90
       50
102
RTVSPost2010PropOp47
 70
     1
102
RTVSPost2010Prop48
 90
       50
102
RTVSPost2010PropOp48
 70
     1
102
RTVSPost2010Prop49
280
     0
102
RTVSPost2010PropOp49
 70
     1
102
RTVSPost2010Prop50
 90
       50
102
RTVSPost2010PropOp50
 70
     1
102
RTVSPost2010Prop51ColorIndex
 90
      256
102
RTVSPost2010Prop51ColorRGB
 90
-16777216
102
RTVSPost2010PropOp51
 70
     0
102
RTVSPost2010Prop52
140
1.0
102
RTVSPost2010PropOp52
 70
     0
102
RTVSPost2010Prop53
 90
        2
102
RTVSPost2010PropOp53
 70
     1
102
RTVSPost2010Prop54
  1
strokes_ogs.tif
102
RTVSPost2010PropOp54
 70
     1
102
RTVSPost2010Prop55
280
     0
102
RTVSPost2010PropOp55
 70
     1
102
RTVSPost2010Prop56
140
1.0
102
RTVSPost2010PropOp56
 70
     1
102
RTVSPost2010Prop57
140
1.0
102
RTVSPost2010PropOp57
 70
     1
102
RTVSPropertyOp0
 70
     1
102
RTVSPropertyOp1
 70
     1
102
RTVSPropertyOp2
 70
     1
102
RTVSPropertyOp3
 70
     1
102
RTVSPropertyOp4
 70
     1
102
RTVSPropertyOp5
 70
     1
102
RTVSPropertyOp6
 70
     1
102
RTVSPropertyOp7
 70
     1
102
RTVSPropertyOp8
 70
     1
102
RTVSPropertyOp9
 70
     1
102
RTVSPropertyOp10
 70
     1
102
RTVSPropertyOp11
 70
     1
102
RTVSPropertyOp12
 70
     1
102
RTVSPropertyOp13
 70
     1
102
RTVSPropertyOp14
 70
     1
102
RTVSPropertyOp15
 70
     1
102
RTVSPropertyOp16
 70
     1
102
RTVSPropertyOp17
 70
     1
102
RTVSPropertyOp18
 70
     1
102
RTVSPropertyOp19
 70
     1
102
RTVSPropertyOp20
 70
     1
102
RTVSPropertyOp21
 70
     1
102
RTVSPropertyOp22
 70
     1
102
RTVSPropertyOp23
 70
     1
102
RTVSPropertyOp24
 70
     1
102
RTVSPropertyOp25
 70
     1
102
RTVSPropertyOp26
 70
     1
102
RTVSPropertyOp27
 70
     1
102
RTVSPropertyOp28
 70
     1
102
RTVSPropertyOp29
 70
     1
102
RTVSPropertyOp30
 70
     1
102
RTVSPropertyOp31
 70
     1
102
RTVSPropertyOp32
 70
     1
102
RTVSPropertyOp33
 70
     1
102
RTVSPropertyOp34
 70
     1
102
RTVSPropertyOp35
 70
     1
102
RTVSPropertyOp36
 70
     1
102
RTVSPropertyOp37
 70
     1
102
RTVSPropertyOp38
 70
     1
102
RTVSPropertyOp39
 70
     1
102
RTVSPropertyOp40
 70
     1
102
RTVSPropertyOp41
 70
     1
102
RTVSPropertyOp42
 70
     1
102
RTVSPropertyOp43
 70
     1
102
RTVSPropertyOp44
 70
     1
102
RTVSPropertyOp45
 70
     1
102
RTVSPropertyOp46
 70
     1
102
RTVSPropertyOp47
 70
     1
102
RTVSPropertyOp48
 70
     1
102
RTVSPropertyOp49
 70
     1
102
RTVSPropertyOp50
 70
     1
102
RTVSPropertyOp51
 70
     0
102
RTVSPropertyOp52
 70
     0
102
RTVSPropertyOp53
 70
     1
102
RTVSPropertyOp54
 70
     1
102
RTVSPropertyOp55
 70
     1
102
RTVSPropertyOp56
 70
     1
102
RTVSPropertyOp57
 70
     1
102
RTVSPropertyOp58
 70
     1
102
RTVSPropertyOp59
 70
     1
102
RTVSPropertyOp60
 70
     1
102
RTVSPropertyOp61
 70
     1
102
RTVSPropertyOp62
 70
     1
  0
XRECORD
  5
81D5
102
{ACAD_REACTORS
330
81D4
102
}
330
81D4
100
AcDbXrecord
280
     1
102
RTVSPost2010Prop28
280
     0
102
RTVSPost2010PropOp28
 70
     1
102
RTVSPost2010Prop29
280
     1
102
RTVSPost2010PropOp29
 70
     1
102
RTVSPost2010Prop30
280
     1
102
RTVSPost2010PropOp30
 70
     1
102
RTVSPost2010Prop31
280
     0
102
RTVSPost2010PropOp31
 70
     1
102
RTVSPost2010Prop32
280
     0
102
RTVSPost2010PropOp32
 70
     1
102
RTVSPost2010Prop33
280
     0
102
RTVSPost2010PropOp33
 70
     1
102
RTVSPost2010Prop34
280
     0
102
RTVSPost2010PropOp34
 70
     1
102
RTVSPost2010Prop35
280
     0
102
RTVSPost2010PropOp35
 70
     1
102
RTVSPost2010Prop36
280
     0
102
RTVSPost2010PropOp36
 70
     1
102
RTVSPost2010Prop37
 90
       50
102
RTVSPost2010PropOp37
 70
     1
102
RTVSPost2010Prop38
140
0.0
102
RTVSPost2010PropOp38
 70
     1
102
RTVSPost2010Prop39
140
1.0
102
RTVSPost2010PropOp39
 70
     1
102
RTVSPost2010Prop40
 90
        0
102
RTVSPost2010PropOp40
 70
     1
102
RTVSPost2010Prop41ColorIndex
 90
       18
102
RTVSPost2010Prop41ColorRGB
 90
        0
102
RTVSPost2010PropOp41
 70
     1
102
RTVSPost2010Prop42
 90
       50
102
RTVSPost2010PropOp42
 70
     1
102
RTVSPost2010Prop43
 90
        3
102
RTVSPost2010PropOp43
 70
     1
102
RTVSPost2010Prop44ColorIndex
 90
        5
102
RTVSPost2010Prop44ColorRGB
 90
      255
102
RTVSPost2010PropOp44
 70
     1
102
RTVSPost2010Prop45
280
     0
102
RTVSPost2010PropOp45
 70
     1
102
RTVSPost2010Prop46
 90
       50
102
RTVSPost2010PropOp46
 70
     1
102
RTVSPost2010Prop47
 90
       50
102
RTVSPost2010PropOp47
 70
     1
102
RTVSPost2010Prop48
 90
       50
102
RTVSPost2010PropOp48
 70
     1
102
RTVSPost2010Prop49
280
     0
102
RTVSPost2010PropOp49
 70
     1
102
RTVSPost2010Prop50
 90
       50
102
RTVSPost2010PropOp50
 70
     1
102
RTVSPost2010Prop51ColorIndex
 90
      256
102
RTVSPost2010Prop51ColorRGB
 90
-16777216
102
RTVSPost2010PropOp51
 70
     0
102
RTVSPost2010Prop52
140
1.0
102
RTVSPost2010PropOp52
 70
     0
102
RTVSPost2010Prop53
 90
        2
102
RTVSPost2010PropOp53
 70
     1
102
RTVSPost2010Prop54
  1
strokes_ogs.tif
102
RTVSPost2010PropOp54
 70
     1
102
RTVSPost2010Prop55
280
     0
102
RTVSPost2010PropOp55
 70
     1
102
RTVSPost2010Prop56
140
1.0
102
RTVSPost2010PropOp56
 70
     1
102
RTVSPost2010Prop57
140
1.0
102
RTVSPost2010PropOp57
 70
     1
102
RTVSPropertyOp0
 70
     1
102
RTVSPropertyOp1
 70
     1
102
RTVSPropertyOp2
 70
     1
102
RTVSPropertyOp3
 70
     1
102
RTVSPropertyOp4
 70
     1
102
RTVSPropertyOp5
 70
     1
102
RTVSPropertyOp6
 70
     1
102
RTVSPropertyOp7
 70
     1
102
RTVSPropertyOp8
 70
     1
102
RTVSPropertyOp9
 70
     1
102
RTVSPropertyOp10
 70
     1
102
RTVSPropertyOp11
 70
     1
102
RTVSPropertyOp12
 70
     1
102
RTVSPropertyOp13
 70
     1
102
RTVSPropertyOp14
 70
     1
102
RTVSPropertyOp15
 70
     1
102
RTVSPropertyOp16
 70
     1
102
RTVSPropertyOp17
 70
     1
102
RTVSPropertyOp18
 70
     1
102
RTVSPropertyOp19
 70
     1
102
RTVSPropertyOp20
 70
     1
102
RTVSPropertyOp21
 70
     1
102
RTVSPropertyOp22
 70
     1
102
RTVSPropertyOp23
 70
     1
102
RTVSPropertyOp24
 70
     1
102
RTVSPropertyOp25
 70
     1
102
RTVSPropertyOp26
 70
     1
102
RTVSPropertyOp27
 70
     1
102
RTVSPropertyOp28
 70
     1
102
RTVSPropertyOp29
 70
     1
102
RTVSPropertyOp30
 70
     1
102
RTVSPropertyOp31
 70
     1
102
RTVSPropertyOp32
 70
     1
102
RTVSPropertyOp33
 70
     1
102
RTVSPropertyOp34
 70
     1
102
RTVSPropertyOp35
 70
     1
102
RTVSPropertyOp36
 70
     1
102
RTVSPropertyOp37
 70
     1
102
RTVSPropertyOp38
 70
     1
102
RTVSPropertyOp39
 70
     1
102
RTVSPropertyOp40
 70
     1
102
RTVSPropertyOp41
 70
     1
102
RTVSPropertyOp42
 70
     1
102
RTVSPropertyOp43
 70
     1
102
RTVSPropertyOp44
 70
     1
102
RTVSPropertyOp45
 70
     1
102
RTVSPropertyOp46
 70
     1
102
RTVSPropertyOp47
 70
     1
102
RTVSPropertyOp48
 70
     1
102
RTVSPropertyOp49
 70
     1
102
RTVSPropertyOp50
 70
     1
102
RTVSPropertyOp51
 70
     0
102
RTVSPropertyOp52
 70
     0
102
RTVSPropertyOp53
 70
     1
102
RTVSPropertyOp54
 70
     1
102
RTVSPropertyOp55
 70
     1
102
RTVSPropertyOp56
 70
     1
102
RTVSPropertyOp57
 70
     1
102
RTVSPropertyOp58
 70
     1
102
RTVSPropertyOp59
 70
     1
102
RTVSPropertyOp60
 70
     1
102
RTVSPropertyOp61
 70
     1
102
RTVSPropertyOp62
 70
     1
  0
XRECORD
  5
81D7
102
{ACAD_REACTORS
330
81D6
102
}
330
81D6
100
AcDbXrecord
280
     1
102
RTVSPost2010Prop28
280
     0
102
RTVSPost2010PropOp28
 70
     1
102
RTVSPost2010Prop29
280
     1
102
RTVSPost2010PropOp29
 70
     1
102
RTVSPost2010Prop30
280
     1
102
RTVSPost2010PropOp30
 70
     1
102
RTVSPost2010Prop31
280
     0
102
RTVSPost2010PropOp31
 70
     1
102
RTVSPost2010Prop32
280
     0
102
RTVSPost2010PropOp32
 70
     1
102
RTVSPost2010Prop33
280
     0
102
RTVSPost2010PropOp33
 70
     1
102
RTVSPost2010Prop34
280
     0
102
RTVSPost2010PropOp34
 70
     1
102
RTVSPost2010Prop35
280
     0
102
RTVSPost2010PropOp35
 70
     1
102
RTVSPost2010Prop36
280
     0
102
RTVSPost2010PropOp36
 70
     1
102
RTVSPost2010Prop37
 90
       50
102
RTVSPost2010PropOp37
 70
     1
102
RTVSPost2010Prop38
140
0.0
102
RTVSPost2010PropOp38
 70
     1
102
RTVSPost2010Prop39
140
1.0
102
RTVSPost2010PropOp39
 70
     1
102
RTVSPost2010Prop40
 90
        0
102
RTVSPost2010PropOp40
 70
     1
102
RTVSPost2010Prop41ColorIndex
 90
       18
102
RTVSPost2010Prop41ColorRGB
 90
        0
102
RTVSPost2010PropOp41
 70
     1
102
RTVSPost2010Prop42
 90
       50
102
RTVSPost2010PropOp42
 70
     1
102
RTVSPost2010Prop43
 90
        3
102
RTVSPost2010PropOp43
 70
     1
102
RTVSPost2010Prop44ColorIndex
 90
        5
102
RTVSPost2010Prop44ColorRGB
 90
      255
102
RTVSPost2010PropOp44
 70
     1
102
RTVSPost2010Prop45
280
     0
102
RTVSPost2010PropOp45
 70
     1
102
RTVSPost2010Prop46
 90
       50
102
RTVSPost2010PropOp46
 70
     1
102
RTVSPost2010Prop47
 90
       50
102
RTVSPost2010PropOp47
 70
     1
102
RTVSPost2010Prop48
 90
       50
102
RTVSPost2010PropOp48
 70
     1
102
RTVSPost2010Prop49
280
     0
102
RTVSPost2010PropOp49
 70
     1
102
RTVSPost2010Prop50
 90
       50
102
RTVSPost2010PropOp50
 70
     1
102
RTVSPost2010Prop51ColorIndex
 90
      256
102
RTVSPost2010Prop51ColorRGB
 90
-16777216
102
RTVSPost2010PropOp51
 70
     0
102
RTVSPost2010Prop52
140
1.0
102
RTVSPost2010PropOp52
 70
     0
102
RTVSPost2010Prop53
 90
        2
102
RTVSPost2010PropOp53
 70
     1
102
RTVSPost2010Prop54
  1
strokes_ogs.tif
102
RTVSPost2010PropOp54
 70
     1
102
RTVSPost2010Prop55
280
     0
102
RTVSPost2010PropOp55
 70
     1
102
RTVSPost2010Prop56
140
1.0
102
RTVSPost2010PropOp56
 70
     1
102
RTVSPost2010Prop57
140
1.0
102
RTVSPost2010PropOp57
 70
     1
102
RTVSPropertyOp0
 70
     1
102
RTVSPropertyOp1
 70
     1
102
RTVSPropertyOp2
 70
     1
102
RTVSPropertyOp3
 70
     1
102
RTVSPropertyOp4
 70
     1
102
RTVSPropertyOp5
 70
     1
102
RTVSPropertyOp6
 70
     1
102
RTVSPropertyOp7
 70
     1
102
RTVSPropertyOp8
 70
     1
102
RTVSPropertyOp9
 70
     1
102
RTVSPropertyOp10
 70
     1
102
RTVSPropertyOp11
 70
     1
102
RTVSPropertyOp12
 70
     1
102
RTVSPropertyOp13
 70
     1
102
RTVSPropertyOp14
 70
     1
102
RTVSPropertyOp15
 70
     1
102
RTVSPropertyOp16
 70
     1
102
RTVSPropertyOp17
 70
     1
102
RTVSPropertyOp18
 70
     1
102
RTVSPropertyOp19
 70
     1
102
RTVSPropertyOp20
 70
     1
102
RTVSPropertyOp21
 70
     1
102
RTVSPropertyOp22
 70
     1
102
RTVSPropertyOp23
 70
     1
102
RTVSPropertyOp24
 70
     1
102
RTVSPropertyOp25
 70
     1
102
RTVSPropertyOp26
 70
     1
102
RTVSPropertyOp27
 70
     1
102
RTVSPropertyOp28
 70
     1
102
RTVSPropertyOp29
 70
     1
102
RTVSPropertyOp30
 70
     1
102
RTVSPropertyOp31
 70
     1
102
RTVSPropertyOp32
 70
     1
102
RTVSPropertyOp33
 70
     1
102
RTVSPropertyOp34
 70
     1
102
RTVSPropertyOp35
 70
     1
102
RTVSPropertyOp36
 70
     1
102
RTVSPropertyOp37
 70
     1
102
RTVSPropertyOp38
 70
     1
102
RTVSPropertyOp39
 70
     1
102
RTVSPropertyOp40
 70
     1
102
RTVSPropertyOp41
 70
     1
102
RTVSPropertyOp42
 70
     1
102
RTVSPropertyOp43
 70
     1
102
RTVSPropertyOp44
 70
     1
102
RTVSPropertyOp45
 70
     1
102
RTVSPropertyOp46
 70
     1
102
RTVSPropertyOp47
 70
     1
102
RTVSPropertyOp48
 70
     1
102
RTVSPropertyOp49
 70
     1
102
RTVSPropertyOp50
 70
     1
102
RTVSPropertyOp51
 70
     0
102
RTVSPropertyOp52
 70
     0
102
RTVSPropertyOp53
 70
     1
102
RTVSPropertyOp54
 70
     1
102
RTVSPropertyOp55
 70
     1
102
RTVSPropertyOp56
 70
     1
102
RTVSPropertyOp57
 70
     1
102
RTVSPropertyOp58
 70
     1
102
RTVSPropertyOp59
 70
     1
102
RTVSPropertyOp60
 70
     1
102
RTVSPropertyOp61
 70
     1
102
RTVSPropertyOp62
 70
     1
  0
XRECORD
  5
81C5
102
{ACAD_REACTORS
330
81C4
102
}
330
81C4
100
AcDbXrecord
280
     1
102
RTVSPost2010Prop28
280
     0
102
RTVSPost2010PropOp28
 70
     1
102
RTVSPost2010Prop29
280
     1
102
RTVSPost2010PropOp29
 70
     1
102
RTVSPost2010Prop30
280
     1
102
RTVSPost2010PropOp30
 70
     1
102
RTVSPost2010Prop31
280
     0
102
RTVSPost2010PropOp31
 70
     1
102
RTVSPost2010Prop32
280
     0
102
RTVSPost2010PropOp32
 70
     1
102
RTVSPost2010Prop33
280
     0
102
RTVSPost2010PropOp33
 70
     1
102
RTVSPost2010Prop34
280
     0
102
RTVSPost2010PropOp34
 70
     1
102
RTVSPost2010Prop35
280
     0
102
RTVSPost2010PropOp35
 70
     1
102
RTVSPost2010Prop36
280
     0
102
RTVSPost2010PropOp36
 70
     1
102
RTVSPost2010Prop37
 90
       50
102
RTVSPost2010PropOp37
 70
     1
102
RTVSPost2010Prop38
140
0.0
102
RTVSPost2010PropOp38
 70
     1
102
RTVSPost2010Prop39
140
1.0
102
RTVSPost2010PropOp39
 70
     1
102
RTVSPost2010Prop40
 90
        0
102
RTVSPost2010PropOp40
 70
     1
102
RTVSPost2010Prop41ColorIndex
 90
       18
102
RTVSPost2010Prop41ColorRGB
 90
        0
102
RTVSPost2010PropOp41
 70
     1
102
RTVSPost2010Prop42
 90
       50
102
RTVSPost2010PropOp42
 70
     1
102
RTVSPost2010Prop43
 90
        3
102
RTVSPost2010PropOp43
 70
     1
102
RTVSPost2010Prop44ColorIndex
 90
        5
102
RTVSPost2010Prop44ColorRGB
 90
      255
102
RTVSPost2010PropOp44
 70
     1
102
RTVSPost2010Prop45
280
     0
102
RTVSPost2010PropOp45
 70
     1
102
RTVSPost2010Prop46
 90
       50
102
RTVSPost2010PropOp46
 70
     1
102
RTVSPost2010Prop47
 90
       50
102
RTVSPost2010PropOp47
 70
     1
102
RTVSPost2010Prop48
 90
       50
102
RTVSPost2010PropOp48
 70
     1
102
RTVSPost2010Prop49
280
     0
102
RTVSPost2010PropOp49
 70
     1
102
RTVSPost2010Prop50
 90
       50
102
RTVSPost2010PropOp50
 70
     1
102
RTVSPost2010Prop51ColorIndex
 90
      256
102
RTVSPost2010Prop51ColorRGB
 90
-16777216
102
RTVSPost2010PropOp51
 70
     0
102
RTVSPost2010Prop52
140
1.0
102
RTVSPost2010PropOp52
 70
     0
102
RTVSPost2010Prop53
 90
        2
102
RTVSPost2010PropOp53
 70
     1
102
RTVSPost2010Prop54
  1
strokes_ogs.tif
102
RTVSPost2010PropOp54
 70
     1
102
RTVSPost2010Prop55
280
     0
102
RTVSPost2010PropOp55
 70
     1
102
RTVSPost2010Prop56
140
1.0
102
RTVSPost2010PropOp56
 70
     1
102
RTVSPost2010Prop57
140
1.0
102
RTVSPost2010PropOp57
 70
     1
102
RTVSPropertyOp0
 70
     1
102
RTVSPropertyOp1
 70
     1
102
RTVSPropertyOp2
 70
     1
102
RTVSPropertyOp3
 70
     1
102
RTVSPropertyOp4
 70
     1
102
RTVSPropertyOp5
 70
     1
102
RTVSPropertyOp6
 70
     1
102
RTVSPropertyOp7
 70
     1
102
RTVSPropertyOp8
 70
     1
102
RTVSPropertyOp9
 70
     1
102
RTVSPropertyOp10
 70
     1
102
RTVSPropertyOp11
 70
     1
102
RTVSPropertyOp12
 70
     1
102
RTVSPropertyOp13
 70
     1
102
RTVSPropertyOp14
 70
     1
102
RTVSPropertyOp15
 70
     1
102
RTVSPropertyOp16
 70
     1
102
RTVSPropertyOp17
 70
     1
102
RTVSPropertyOp18
 70
     1
102
RTVSPropertyOp19
 70
     1
102
RTVSPropertyOp20
 70
     1
102
RTVSPropertyOp21
 70
     1
102
RTVSPropertyOp22
 70
     1
102
RTVSPropertyOp23
 70
     1
102
RTVSPropertyOp24
 70
     1
102
RTVSPropertyOp25
 70
     1
102
RTVSPropertyOp26
 70
     1
102
RTVSPropertyOp27
 70
     1
102
RTVSPropertyOp28
 70
     1
102
RTVSPropertyOp29
 70
     1
102
RTVSPropertyOp30
 70
     1
102
RTVSPropertyOp31
 70
     1
102
RTVSPropertyOp32
 70
     1
102
RTVSPropertyOp33
 70
     1
102
RTVSPropertyOp34
 70
     1
102
RTVSPropertyOp35
 70
     1
102
RTVSPropertyOp36
 70
     1
102
RTVSPropertyOp37
 70
     1
102
RTVSPropertyOp38
 70
     1
102
RTVSPropertyOp39
 70
     1
102
RTVSPropertyOp40
 70
     1
102
RTVSPropertyOp41
 70
     1
102
RTVSPropertyOp42
 70
     1
102
RTVSPropertyOp43
 70
     1
102
RTVSPropertyOp44
 70
     1
102
RTVSPropertyOp45
 70
     1
102
RTVSPropertyOp46
 70
     1
102
RTVSPropertyOp47
 70
     1
102
RTVSPropertyOp48
 70
     1
102
RTVSPropertyOp49
 70
     1
102
RTVSPropertyOp50
 70
     1
102
RTVSPropertyOp51
 70
     0
102
RTVSPropertyOp52
 70
     0
102
RTVSPropertyOp53
 70
     1
102
RTVSPropertyOp54
 70
     1
102
RTVSPropertyOp55
 70
     1
102
RTVSPropertyOp56
 70
     1
102
RTVSPropertyOp57
 70
     1
102
RTVSPropertyOp58
 70
     1
102
RTVSPropertyOp59
 70
     1
102
RTVSPropertyOp60
 70
     1
102
RTVSPropertyOp61
 70
     1
102
RTVSPropertyOp62
 70
     1
  0
XRECORD
  5
81B9
102
{ACAD_REACTORS
330
81B8
102
}
330
81B8
100
AcDbXrecord
280
     1
102
RTVSPost2010Prop28
280
     0
102
RTVSPost2010PropOp28
 70
     1
102
RTVSPost2010Prop29
280
     1
102
RTVSPost2010PropOp29
 70
     1
102
RTVSPost2010Prop30
280
     1
102
RTVSPost2010PropOp30
 70
     1
102
RTVSPost2010Prop31
280
     0
102
RTVSPost2010PropOp31
 70
     1
102
RTVSPost2010Prop32
280
     0
102
RTVSPost2010PropOp32
 70
     1
102
RTVSPost2010Prop33
280
     0
102
RTVSPost2010PropOp33
 70
     1
102
RTVSPost2010Prop34
280
     0
102
RTVSPost2010PropOp34
 70
     1
102
RTVSPost2010Prop35
280
     0
102
RTVSPost2010PropOp35
 70
     1
102
RTVSPost2010Prop36
280
     0
102
RTVSPost2010PropOp36
 70
     1
102
RTVSPost2010Prop37
 90
       50
102
RTVSPost2010PropOp37
 70
     1
102
RTVSPost2010Prop38
140
0.0
102
RTVSPost2010PropOp38
 70
     1
102
RTVSPost2010Prop39
140
1.0
102
RTVSPost2010PropOp39
 70
     1
102
RTVSPost2010Prop40
 90
        0
102
RTVSPost2010PropOp40
 70
     1
102
RTVSPost2010Prop41ColorIndex
 90
       18
102
RTVSPost2010Prop41ColorRGB
 90
        0
102
RTVSPost2010PropOp41
 70
     1
102
RTVSPost2010Prop42
 90
       50
102
RTVSPost2010PropOp42
 70
     1
102
RTVSPost2010Prop43
 90
        3
102
RTVSPost2010PropOp43
 70
     1
102
RTVSPost2010Prop44ColorIndex
 90
        5
102
RTVSPost2010Prop44ColorRGB
 90
      255
102
RTVSPost2010PropOp44
 70
     1
102
RTVSPost2010Prop45
280
     0
102
RTVSPost2010PropOp45
 70
     1
102
RTVSPost2010Prop46
 90
       50
102
RTVSPost2010PropOp46
 70
     1
102
RTVSPost2010Prop47
 90
       50
102
RTVSPost2010PropOp47
 70
     1
102
RTVSPost2010Prop48
 90
       50
102
RTVSPost2010PropOp48
 70
     1
102
RTVSPost2010Prop49
280
     0
102
RTVSPost2010PropOp49
 70
     1
102
RTVSPost2010Prop50
 90
       50
102
RTVSPost2010PropOp50
 70
     1
102
RTVSPost2010Prop51ColorIndex
 90
      256
102
RTVSPost2010Prop51ColorRGB
 90
-16777216
102
RTVSPost2010PropOp51
 70
     0
102
RTVSPost2010Prop52
140
1.0
102
RTVSPost2010PropOp52
 70
     0
102
RTVSPost2010Prop53
 90
        2
102
RTVSPost2010PropOp53
 70
     1
102
RTVSPost2010Prop54
  1
strokes_ogs.tif
102
RTVSPost2010PropOp54
 70
     1
102
RTVSPost2010Prop55
280
     0
102
RTVSPost2010PropOp55
 70
     1
102
RTVSPost2010Prop56
140
1.0
102
RTVSPost2010PropOp56
 70
     1
102
RTVSPost2010Prop57
140
1.0
102
RTVSPost2010PropOp57
 70
     1
102
RTVSPropertyOp0
 70
     1
102
RTVSPropertyOp1
 70
     1
102
RTVSPropertyOp2
 70
     1
102
RTVSPropertyOp3
 70
     1
102
RTVSPropertyOp4
 70
     1
102
RTVSPropertyOp5
 70
     1
102
RTVSPropertyOp6
 70
     1
102
RTVSPropertyOp7
 70
     1
102
RTVSPropertyOp8
 70
     1
102
RTVSPropertyOp9
 70
     1
102
RTVSPropertyOp10
 70
     1
102
RTVSPropertyOp11
 70
     1
102
RTVSPropertyOp12
 70
     1
102
RTVSPropertyOp13
 70
     1
102
RTVSPropertyOp14
 70
     1
102
RTVSPropertyOp15
 70
     1
102
RTVSPropertyOp16
 70
     1
102
RTVSPropertyOp17
 70
     1
102
RTVSPropertyOp18
 70
     1
102
RTVSPropertyOp19
 70
     1
102
RTVSPropertyOp20
 70
     1
102
RTVSPropertyOp21
 70
     1
102
RTVSPropertyOp22
 70
     1
102
RTVSPropertyOp23
 70
     1
102
RTVSPropertyOp24
 70
     1
102
RTVSPropertyOp25
 70
     1
102
RTVSPropertyOp26
 70
     1
102
RTVSPropertyOp27
 70
     1
102
RTVSPropertyOp28
 70
     1
102
RTVSPropertyOp29
 70
     1
102
RTVSPropertyOp30
 70
     1
102
RTVSPropertyOp31
 70
     1
102
RTVSPropertyOp32
 70
     1
102
RTVSPropertyOp33
 70
     1
102
RTVSPropertyOp34
 70
     1
102
RTVSPropertyOp35
 70
     1
102
RTVSPropertyOp36
 70
     1
102
RTVSPropertyOp37
 70
     1
102
RTVSPropertyOp38
 70
     1
102
RTVSPropertyOp39
 70
     1
102
RTVSPropertyOp40
 70
     1
102
RTVSPropertyOp41
 70
     1
102
RTVSPropertyOp42
 70
     1
102
RTVSPropertyOp43
 70
     1
102
RTVSPropertyOp44
 70
     1
102
RTVSPropertyOp45
 70
     1
102
RTVSPropertyOp46
 70
     1
102
RTVSPropertyOp47
 70
     1
102
RTVSPropertyOp48
 70
     1
102
RTVSPropertyOp49
 70
     1
102
RTVSPropertyOp50
 70
     1
102
RTVSPropertyOp51
 70
     0
102
RTVSPropertyOp52
 70
     0
102
RTVSPropertyOp53
 70
     1
102
RTVSPropertyOp54
 70
     1
102
RTVSPropertyOp55
 70
     1
102
RTVSPropertyOp56
 70
     1
102
RTVSPropertyOp57
 70
     1
102
RTVSPropertyOp58
 70
     1
102
RTVSPropertyOp59
 70
     1
102
RTVSPropertyOp60
 70
     1
102
RTVSPropertyOp61
 70
     1
102
RTVSPropertyOp62
 70
     1
  0
XRECORD
  5
81D9
102
{ACAD_REACTORS
330
81D8
102
}
330
81D8
100
AcDbXrecord
280
     1
102
RTVSPost2010Prop28
280
     0
102
RTVSPost2010PropOp28
 70
     1
102
RTVSPost2010Prop29
280
     1
102
RTVSPost2010PropOp29
 70
     1
102
RTVSPost2010Prop30
280
     1
102
RTVSPost2010PropOp30
 70
     1
102
RTVSPost2010Prop31
280
     0
102
RTVSPost2010PropOp31
 70
     1
102
RTVSPost2010Prop32
280
     0
102
RTVSPost2010PropOp32
 70
     1
102
RTVSPost2010Prop33
280
     0
102
RTVSPost2010PropOp33
 70
     1
102
RTVSPost2010Prop34
280
     0
102
RTVSPost2010PropOp34
 70
     1
102
RTVSPost2010Prop35
280
     0
102
RTVSPost2010PropOp35
 70
     1
102
RTVSPost2010Prop36
280
     0
102
RTVSPost2010PropOp36
 70
     1
102
RTVSPost2010Prop37
 90
       50
102
RTVSPost2010PropOp37
 70
     1
102
RTVSPost2010Prop38
140
0.0
102
RTVSPost2010PropOp38
 70
     1
102
RTVSPost2010Prop39
140
1.0
102
RTVSPost2010PropOp39
 70
     1
102
RTVSPost2010Prop40
 90
        0
102
RTVSPost2010PropOp40
 70
     1
102
RTVSPost2010Prop41ColorIndex
 90
       18
102
RTVSPost2010Prop41ColorRGB
 90
        0
102
RTVSPost2010PropOp41
 70
     1
102
RTVSPost2010Prop42
 90
       50
102
RTVSPost2010PropOp42
 70
     1
102
RTVSPost2010Prop43
 90
        3
102
RTVSPost2010PropOp43
 70
     1
102
RTVSPost2010Prop44ColorIndex
 90
        5
102
RTVSPost2010Prop44ColorRGB
 90
      255
102
RTVSPost2010PropOp44
 70
     1
102
RTVSPost2010Prop45
280
     0
102
RTVSPost2010PropOp45
 70
     1
102
RTVSPost2010Prop46
 90
       50
102
RTVSPost2010PropOp46
 70
     1
102
RTVSPost2010Prop47
 90
       50
102
RTVSPost2010PropOp47
 70
     1
102
RTVSPost2010Prop48
 90
       50
102
RTVSPost2010PropOp48
 70
     1
102
RTVSPost2010Prop49
280
     0
102
RTVSPost2010PropOp49
 70
     1
102
RTVSPost2010Prop50
 90
       50
102
RTVSPost2010PropOp50
 70
     1
102
RTVSPost2010Prop51ColorIndex
 90
      256
102
RTVSPost2010Prop51ColorRGB
 90
-16777216
102
RTVSPost2010PropOp51
 70
     0
102
RTVSPost2010Prop52
140
1.0
102
RTVSPost2010PropOp52
 70
     0
102
RTVSPost2010Prop53
 90
        2
102
RTVSPost2010PropOp53
 70
     1
102
RTVSPost2010Prop54
  1
strokes_ogs.tif
102
RTVSPost2010PropOp54
 70
     1
102
RTVSPost2010Prop55
280
     0
102
RTVSPost2010PropOp55
 70
     1
102
RTVSPost2010Prop56
140
1.0
102
RTVSPost2010PropOp56
 70
     1
102
RTVSPost2010Prop57
140
1.0
102
RTVSPost2010PropOp57
 70
     1
102
RTVSPropertyOp0
 70
     1
102
RTVSPropertyOp1
 70
     1
102
RTVSPropertyOp2
 70
     1
102
RTVSPropertyOp3
 70
     1
102
RTVSPropertyOp4
 70
     1
102
RTVSPropertyOp5
 70
     1
102
RTVSPropertyOp6
 70
     1
102
RTVSPropertyOp7
 70
     1
102
RTVSPropertyOp8
 70
     1
102
RTVSPropertyOp9
 70
     1
102
RTVSPropertyOp10
 70
     1
102
RTVSPropertyOp11
 70
     1
102
RTVSPropertyOp12
 70
     1
102
RTVSPropertyOp13
 70
     1
102
RTVSPropertyOp14
 70
     1
102
RTVSPropertyOp15
 70
     1
102
RTVSPropertyOp16
 70
     1
102
RTVSPropertyOp17
 70
     1
102
RTVSPropertyOp18
 70
     1
102
RTVSPropertyOp19
 70
     1
102
RTVSPropertyOp20
 70
     1
102
RTVSPropertyOp21
 70
     1
102
RTVSPropertyOp22
 70
     1
102
RTVSPropertyOp23
 70
     1
102
RTVSPropertyOp24
 70
     1
102
RTVSPropertyOp25
 70
     1
102
RTVSPropertyOp26
 70
     1
102
RTVSPropertyOp27
 70
     1
102
RTVSPropertyOp28
 70
     1
102
RTVSPropertyOp29
 70
     1
102
RTVSPropertyOp30
 70
     1
102
RTVSPropertyOp31
 70
     1
102
RTVSPropertyOp32
 70
     1
102
RTVSPropertyOp33
 70
     1
102
RTVSPropertyOp34
 70
     1
102
RTVSPropertyOp35
 70
     1
102
RTVSPropertyOp36
 70
     1
102
RTVSPropertyOp37
 70
     1
102
RTVSPropertyOp38
 70
     1
102
RTVSPropertyOp39
 70
     1
102
RTVSPropertyOp40
 70
     1
102
RTVSPropertyOp41
 70
     1
102
RTVSPropertyOp42
 70
     1
102
RTVSPropertyOp43
 70
     1
102
RTVSPropertyOp44
 70
     1
102
RTVSPropertyOp45
 70
     1
102
RTVSPropertyOp46
 70
     1
102
RTVSPropertyOp47
 70
     1
102
RTVSPropertyOp48
 70
     1
102
RTVSPropertyOp49
 70
     1
102
RTVSPropertyOp50
 70
     1
102
RTVSPropertyOp51
 70
     0
102
RTVSPropertyOp52
 70
     0
102
RTVSPropertyOp53
 70
     1
102
RTVSPropertyOp54
 70
     1
102
RTVSPropertyOp55
 70
     1
102
RTVSPropertyOp56
 70
     1
102
RTVSPropertyOp57
 70
     1
102
RTVSPropertyOp58
 70
     1
102
RTVSPropertyOp59
 70
     1
102
RTVSPropertyOp60
 70
     1
102
RTVSPropertyOp61
 70
     1
102
RTVSPropertyOp62
 70
     1
  0
ENDSEC
  0
EOF
