  0
SECTION
  2
HEADER
  9
$ACADVER
  1
AC1015
  9
$ACADMAINTVER
 70
    18
  9
$DWGCODEPAGE
  3
ANSI_1252
  9
$INSBASE
 10
0.0
 20
0.0
 30
0.0
  9
$EXTMIN
 10
-217.3315422438685
 20
-254.2011104442658
 30
-0.0015258207003583
  9
$EXTMAX
 10
287.9296883241386
 20
273.8059393852087
 30
0.0000000349246037
  9
$LIMMIN
 10
0.0
 20
0.0
  9
$LIMMAX
 10
420.0
 20
297.0
  9
$ORTHOMODE
 70
     0
  9
$REGENMODE
 70
     1
  9
$FILLMODE
 70
     1
  9
$QTEXTMODE
 70
     0
  9
$MIRRTEXT
 70
     0
  9
$LTSCALE
 40
1.0
  9
$ATTMODE
 70
     1
  9
$TEXTSIZE
 40
2.5
  9
$TRACEWID
 40
1.0
  9
$TEXTSTYLE
  7
Standard
  9
$CLAYER
  8
0
  9
$CELTYPE
  6
ByLayer
  9
$CECOLOR
 62
   256
  9
$CELTSCALE
 40
1.0
  9
$DISPSILH
 70
     0
  9
$DIMSCALE
 40
1.0
  9
$DIMASZ
 40
2.5
  9
$DIMEXO
 40
0.625
  9
$DIMDLI
 40
3.75
  9
$DIMRND
 40
0.0
  9
$DIMDLE
 40
0.0
  9
$DIMEXE
 40
1.25
  9
$DIMTP
 40
0.0
  9
$DIMTM
 40
0.0
  9
$DIMTXT
 40
2.5
  9
$DIMCEN
 40
2.5
  9
$DIMTSZ
 40
0.0
  9
$DIMTOL
 70
     0
  9
$DIMLIM
 70
     0
  9
$DIMTIH
 70
     0
  9
$DIMTOH
 70
     0
  9
$DIMSE1
 70
     0
  9
$DIMSE2
 70
     0
  9
$DIMTAD
 70
     1
  9
$DIMZIN
 70
     8
  9
$DIMBLK
  1

  9
$DIMASO
 70
     1
  9
$DIMSHO
 70
     1
  9
$DIMPOST
  1

  9
$DIMAPOST
  1

  9
$DIMALT
 70
     0
  9
$DIMALTD
 70
     3
  9
$DIMALTF
 40
0.03937007874016
  9
$DIMLFAC
 40
1.0
  9
$DIMTOFL
 70
     1
  9
$DIMTVP
 40
0.0
  9
$DIMTIX
 70
     0
  9
$DIMSOXD
 70
     0
  9
$DIMSAH
 70
     0
  9
$DIMBLK1
  1

  9
$DIMBLK2
  1

  9
$DIMSTYLE
  2
ISO-25
  9
$DIMCLRD
 70
     0
  9
$DIMCLRE
 70
     0
  9
$DIMCLRT
 70
     0
  9
$DIMTFAC
 40
1.0
  9
$DIMGAP
 40
0.625
  9
$DIMJUST
 70
     0
  9
$DIMSD1
 70
     0
  9
$DIMSD2
 70
     0
  9
$DIMTOLJ
 70
     0
  9
$DIMTZIN
 70
     8
  9
$DIMALTZ
 70
     0
  9
$DIMALTTZ
 70
     0
  9
$DIMUPT
 70
     0
  9
$DIMDEC
 70
     2
  9
$DIMTDEC
 70
     2
  9
$DIMALTU
 70
     2
  9
$DIMALTTD
 70
     3
  9
$DIMTXSTY
  7
Standard
  9
$DIMAUNIT
 70
     0
  9
$DIMADEC
 70
     0
  9
$DIMALTRND
 40
0.0
  9
$DIMAZIN
 70
     0
  9
$DIMDSEP
 70
    44
  9
$DIMATFIT
 70
     3
  9
$DIMFRAC
 70
     0
  9
$DIMLDRBLK
  1

  9
$DIMLUNIT
 70
     2
  9
$DIMLWD
 70
    -2
  9
$DIMLWE
 70
    -2
  9
$DIMTMOVE
 70
     0
  9
$LUNITS
 70
     2
  9
$LUPREC
 70
     4
  9
$SKETCHINC
 40
1.0
  9
$FILLETRAD
 40
0.0
  9
$AUNITS
 70
     0
  9
$AUPREC
 70
     0
  9
$MENU
  1
.
  9
$ELEVATION
 40
0.0
  9
$PELEVATION
 40
0.0
  9
$THICKNESS
 40
0.0
  9
$LIMCHECK
 70
     0
  9
$CHAMFERA
 40
0.0
  9
$CHAMFERB
 40
0.0
  9
$CHAMFERC
 40
0.0
  9
$CHAMFERD
 40
0.0
  9
$SKPOLY
 70
     0
  9
$TDCREATE
 40
2460398.356956019
  9
$TDUCREATE
 40
2460398.065289352
  9
$TDUPDATE
 40
2460398.375277778
  9
$TDUUPDATE
 40
2460398.083611111
  9
$TDINDWG
 40
0.0078472222
  9
$TDUSRTIMER
 40
0.0078472222
  9
$USRTIMER
 70
     1
  9
$ANGBASE
 50
0.0
  9
$ANGDIR
 70
     0
  9
$PDMODE
 70
     0
  9
$PDSIZE
 40
0.0
  9
$PLINEWID
 40
0.0
  9
$SPLFRAME
 70
     0
  9
$SPLINETYPE
 70
     6
  9
$SPLINESEGS
 70
     8
  9
$HANDSEED
  5
A2C7
  9
$SURFTAB1
 70
     6
  9
$SURFTAB2
 70
     6
  9
$SURFTYPE
 70
     6
  9
$SURFU
 70
     6
  9
$SURFV
 70
     6
  9
$UCSBASE
  2

  9
$UCSNAME
  2

  9
$UCSORG
 10
0.0
 20
0.0
 30
0.0
  9
$UCSXDIR
 10
1.0
 20
0.0
 30
0.0
  9
$UCSYDIR
 10
0.0
 20
1.0
 30
0.0
  9
$UCSORTHOREF
  2

  9
$UCSORTHOVIEW
 70
     0
  9
$UCSORGTOP
 10
0.0
 20
0.0
 30
0.0
  9
$UCSORGBOTTOM
 10
0.0
 20
0.0
 30
0.0
  9
$UCSORGLEFT
 10
0.0
 20
0.0
 30
0.0
  9
$UCSORGRIGHT
 10
0.0
 20
0.0
 30
0.0
  9
$UCSORGFRONT
 10
0.0
 20
0.0
 30
0.0
  9
$UCSORGBACK
 10
0.0
 20
0.0
 30
0.0
  9
$PUCSBASE
  2

  9
$PUCSNAME
  2

  9
$PUCSORG
 10
0.0
 20
0.0
 30
0.0
  9
$PUCSXDIR
 10
1.0
 20
0.0
 30
0.0
  9
$PUCSYDIR
 10
0.0
 20
1.0
 30
0.0
  9
$PUCSORTHOREF
  2

  9
$PUCSORTHOVIEW
 70
     0
  9
$PUCSORGTOP
 10
0.0
 20
0.0
 30
0.0
  9
$PUCSORGBOTTOM
 10
0.0
 20
0.0
 30
0.0
  9
$PUCSORGLEFT
 10
0.0
 20
0.0
 30
0.0
  9
$PUCSORGRIGHT
 10
0.0
 20
0.0
 30
0.0
  9
$PUCSORGFRONT
 10
0.0
 20
0.0
 30
0.0
  9
$PUCSORGBACK
 10
0.0
 20
0.0
 30
0.0
  9
$USERI1
 70
     0
  9
$USERI2
 70
     0
  9
$USERI3
 70
     0
  9
$USERI4
 70
     0
  9
$USERI5
 70
     0
  9
$USERR1
 40
0.0
  9
$USERR2
 40
0.0
  9
$USERR3
 40
0.0
  9
$USERR4
 40
0.0
  9
$USERR5
 40
0.0
  9
$WORLDVIEW
 70
     1
  9
$SHADEDGE
 70
     3
  9
$SHADEDIF
 70
    70
  9
$TILEMODE
 70
     1
  9
$MAXACTVP
 70
    48
  9
$PINSBASE
 10
0.0
 20
0.0
 30
0.0
  9
$PLIMCHECK
 70
     0
  9
$PEXTMIN
 10
0.0
 20
0.0
 30
0.0
  9
$PEXTMAX
 10
0.0
 20
0.0
 30
0.0
  9
$PLIMMIN
 10
0.0
 20
0.0
  9
$PLIMMAX
 10
12.0
 20
9.0
  9
$UNITMODE
 70
     0
  9
$VISRETAIN
 70
     1
  9
$PLINEGEN
 70
     0
  9
$PSLTSCALE
 70
     1
  9
$TREEDEPTH
 70
  3020
  9
$CMLSTYLE
  2
Standard
  9
$CMLJUST
 70
     0
  9
$CMLSCALE
 40
20.0
  9
$PROXYGRAPHICS
 70
     1
  9
$MEASUREMENT
 70
     1
  9
$CELWEIGHT
370
    -1
  9
$ENDCAPS
280
     0
  9
$JOINSTYLE
280
     0
  9
$LWDISPLAY
290
     0
  9
$INSUNITS
 70
     4
  9
$HYPERLINKBASE
  1

  9
$STYLESHEET
  1

  9
$XEDIT
290
     1
  9
$CEPSNTYPE
380
     0
  9
$PSTYLEMODE
290
     1
  9
$FINGERPRINTGUID
  2
{6C1266EE-7BC1-BF4A-B059-A6E7702B10CE}
  9
$VERSIONGUID
  2
{B6C28836-B83C-274B-904F-088F48B6B95E}
  9
$EXTNAMES
290
     1
  9
$PSVPSCALE
 40
0.0
  9
$OLESTARTUP
290
     0
  0
ENDSEC
  0
SECTION
  2
CLASSES
  0
CLASS
  1
ACDBDICTIONARYWDFLT
  2
AcDbDictionaryWithDefault
  3
ObjectDBX Classes
 90
        0
280
     0
281
     0
  0
CLASS
  1
ACDBPLACEHOLDER
  2
AcDbPlaceHolder
  3
ObjectDBX Classes
 90
        0
280
     0
281
     0
  0
CLASS
  1
LAYOUT
  2
AcDbLayout
  3
ObjectDBX Classes
 90
        0
280
     0
281
     0
  0
CLASS
  1
DICTIONARYVAR
  2
AcDbDictionaryVar
  3
ObjectDBX Classes
 90
        0
280
     0
281
     0
  0
CLASS
  1
TABLESTYLE
  2
AcDbTableStyle
  3
ObjectDBX Classes
 90
     4095
280
     0
281
     0
  0
CLASS
  1
MATERIAL
  2
AcDbMaterial
  3
ObjectDBX Classes
 90
     1153
280
     0
281
     0
  0
CLASS
  1
VISUALSTYLE
  2
AcDbVisualStyle
  3
ObjectDBX Classes
 90
     4095
280
     0
281
     0
  0
CLASS
  1
SCALE
  2
AcDbScale
  3
ObjectDBX Classes
 90
     1153
280
     0
281
     0
  0
CLASS
  1
MLEADERSTYLE
  2
AcDbMLeaderStyle
  3
ACDB_MLEADERSTYLE_CLASS
 90
     4095
280
     0
281
     0
  0
CLASS
  1
CELLSTYLEMAP
  2
AcDbCellStyleMap
  3
ObjectDBX Classes
 90
     1152
280
     0
281
     0
  0
CLASS
  1
EXACXREFPANELOBJECT
  2
ExAcXREFPanelObject
  3
EXAC_ESW
 90
    33793
280
     0
281
     0
  0
CLASS
  1
NPOCOLLECTION
  2
AcDbImpNonPersistentObjectsCollection
  3
ObjectDBX Classes
 90
    33921
280
     0
281
     0
  0
CLASS
  1
LAYER_INDEX
  2
AcDbLayerIndex
  3
ObjectDBX Classes
 90
    32768
280
     0
281
     0
  0
CLASS
  1
SPATIAL_INDEX
  2
AcDbSpatialIndex
  3
ObjectDBX Classes
 90
    32768
280
     0
281
     0
  0
CLASS
  1
IDBUFFER
  2
AcDbIdBuffer
  3
ObjectDBX Classes
 90
    32768
280
     0
281
     0
  0
CLASS
  1
ACDBSECTIONVIEWSTYLE
  2
AcDbSectionViewStyle
  3
ObjectDBX Classes
 90
     1025
280
     0
281
     0
  0
CLASS
  1
ACDBDETAILVIEWSTYLE
  2
AcDbDetailViewStyle
  3
ObjectDBX Classes
 90
     1025
280
     0
281
     0
  0
CLASS
  1
XRECORD
  2
AcDbXrecord
  3
ObjectDBX Classes
 90
        0
280
     0
281
     0
  0
ENDSEC
  0
SECTION
  2
TABLES
  0
TABLE
  2
VPORT
  5
8
102
{ACAD_XDICTIONARY
360
A1D5
102
}
330
0
100
AcDbSymbolTable
 70
     1
  0
VPORT
  5
EA
330
8
100
AcDbSymbolTableRecord
100
AcDbViewportTableRecord
  2
*Active
 70
     0
 10
0.0
 20
0.0
 11
1.0
 21
1.0
 12
35.29907304013512
 22
9.802414470471433
 13
0.0
 23
0.0
 14
10.0
 24
10.0
 15
10.0
 25
10.0
 16
0.0
 26
0.0
 36
1.0
 17
0.0
 27
0.0
 37
0.0
 40
561.4876477439355
 41
0.9846153846153848
 42
50.0
 43
0.0
 44
0.0
 50
0.0
 51
0.0
 71
     0
 72
  1000
 73
     1
 74
     3
 75
     0
 76
     1
 77
     0
 78
     0
281
     0
 65
     1
110
0.0
120
0.0
130
0.0
111
1.0
121
0.0
131
0.0
112
0.0
122
1.0
132
0.0
 79
     0
146
0.0
1001
ACAD_NAV_VCDISPLAY
1070
     3
  0
ENDTAB
  0
TABLE
  2
LTYPE
  5
5
330
0
100
AcDbSymbolTable
 70
     1
  0
LTYPE
  5
14
330
5
100
AcDbSymbolTableRecord
100
AcDbLinetypeTableRecord
  2
ByBlock
 70
     0
  3

 72
    65
 73
     0
 40
0.0
  0
LTYPE
  5
15
330
5
100
AcDbSymbolTableRecord
100
AcDbLinetypeTableRecord
  2
ByLayer
 70
     0
  3

 72
    65
 73
     0
 40
0.0
  0
LTYPE
  5
16
330
5
100
AcDbSymbolTableRecord
100
AcDbLinetypeTableRecord
  2
Continuous
 70
     0
  3
Solid line
 72
    65
 73
     0
 40
0.0
  0
ENDTAB
  0
TABLE
  2
LAYER
  5
2
102
{ACAD_XDICTIONARY
360
1FF
102
}
330
0
100
AcDbSymbolTable
 70
     1
  0
LAYER
  5
10
102
{ACAD_XDICTIONARY
360
13C
102
}
330
2
100
AcDbSymbolTableRecord
100
AcDbLayerTableRecord
  2
0
 70
     0
 62
     7
  6
Continuous
370
    -3
390
F
  0
ENDTAB
  0
TABLE
  2
STYLE
  5
3
330
0
100
AcDbSymbolTable
 70
     1
  0
STYLE
  5
11
330
3
100
AcDbSymbolTableRecord
100
AcDbTextStyleTableRecord
  2
Standard
 70
     0
 40
0.0
 41
1.0
 50
0.0
 71
     0
 42
2.5
  3
arial.ttf
  4

1001
ACAD
1000
Arial
1071
       34
  0
ENDTAB
  0
TABLE
  2
VIEW
  5
6
330
0
100
AcDbSymbolTable
 70
     0
  0
ENDTAB
  0
TABLE
  2
UCS
  5
7
330
0
100
AcDbSymbolTable
 70
     0
  0
ENDTAB
  0
TABLE
  2
APPID
  5
9
330
0
100
AcDbSymbolTable
 70
     8
  0
APPID
  5
12
330
9
100
AcDbSymbolTableRecord
100
AcDbRegAppTableRecord
  2
ACAD
 70
     0
  0
APPID
  5
9E
330
9
100
AcDbSymbolTableRecord
100
AcDbRegAppTableRecord
  2
ACAD_PSEXT
 70
     0
  0
APPID
  5
133
330
9
100
AcDbSymbolTableRecord
100
AcDbRegAppTableRecord
  2
AcadAnnoPO
 70
     0
  0
APPID
  5
134
330
9
100
AcDbSymbolTableRecord
100
AcDbRegAppTableRecord
  2
AcadAnnotative
 70
     0
  0
APPID
  5
135
330
9
100
AcDbSymbolTableRecord
100
AcDbRegAppTableRecord
  2
ACAD_DSTYLE_DIMJAG
 70
     0
  0
APPID
  5
136
330
9
100
AcDbSymbolTableRecord
100
AcDbRegAppTableRecord
  2
ACAD_DSTYLE_DIMTALN
 70
     0
  0
APPID
  5
165
330
9
100
AcDbSymbolTableRecord
100
AcDbRegAppTableRecord
  2
ACAD_MLEADERVER
 70
     0
  0
APPID
  5
217
330
9
100
AcDbSymbolTableRecord
100
AcDbRegAppTableRecord
  2
ACAD_NAV_VCDISPLAY
 70
     0
  0
ENDTAB
  0
TABLE
  2
DIMSTYLE
  5
A
330
0
100
AcDbSymbolTable
 70
     1
100
AcDbDimStyleTable
 71
     0
  0
DIMSTYLE
105
27
330
A
100
AcDbSymbolTableRecord
100
AcDbDimStyleTableRecord
  2
ISO-25
 70
     0
 41
2.5
 42
0.625
 43
3.75
 44
1.25
 73
     0
 74
     0
 77
     1
 78
     8
140
2.5
141
2.5
143
0.03937007874016
147
0.625
171
     3
172
     1
271
     2
272
     2
274
     3
278
    44
283
     0
284
     8
340
11
  0
ENDTAB
  0
TABLE
  2
BLOCK_RECORD
  5
1
330
0
100
AcDbSymbolTable
 70
     7
  0
BLOCK_RECORD
  5
1F
102
{ACAD_XDICTIONARY
360
1CE
102
}
330
1
100
AcDbSymbolTableRecord
100
AcDbBlockTableRecord
  2
*Model_Space
340
22
  0
BLOCK_RECORD
  5
D2
102
{ACAD_XDICTIONARY
360
A188
102
}
330
1
100
AcDbSymbolTableRecord
100
AcDbBlockTableRecord
  2
*Paper_Space
340
D3
  0
BLOCK_RECORD
  5
D6
102
{ACAD_XDICTIONARY
360
A18A
102
}
330
1
100
AcDbSymbolTableRecord
100
AcDbBlockTableRecord
  2
*Paper_Space0
340
D7
  0
BLOCK_RECORD
  5
A007
330
1
100
AcDbSymbolTableRecord
100
AcDbBlockTableRecord
  2
SAE380_92_2-Front
340
0
102
{BLKREFS
331
A17E
102
}
  0
BLOCK_RECORD
  5
A05A
330
1
100
AcDbSymbolTableRecord
100
AcDbBlockTableRecord
  2
SAE380_92_2-Left
340
0
102
{BLKREFS
331
A17F
102
}
  0
BLOCK_RECORD
  5
A07B
330
1
100
AcDbSymbolTableRecord
100
AcDbBlockTableRecord
  2
SAE380_92_2-Right
340
0
102
{BLKREFS
331
A180
102
}
  0
BLOCK_RECORD
  5
A09C
330
1
100
AcDbSymbolTableRecord
100
AcDbBlockTableRecord
  2
SAE380_92_2-Top
340
0
102
{BLKREFS
331
A181
102
}
  0
BLOCK_RECORD
  5
A0C9
330
1
100
AcDbSymbolTableRecord
100
AcDbBlockTableRecord
  2
SAE380_92_2-Bottom
340
0
102
{BLKREFS
331
A182
102
}
  0
BLOCK_RECORD
  5
A0ED
330
1
100
AcDbSymbolTableRecord
100
AcDbBlockTableRecord
  2
SAE380_92_2-ISO
340
0
102
{BLKREFS
331
A183
102
}
  0
ENDTAB
  0
ENDSEC
  0
SECTION
  2
BLOCKS
  0
BLOCK
  5
20
330
1F
100
AcDbEntity
  8
0
100
AcDbBlockBegin
  2
*Model_Space
 70
     0
 10
0.0
 20
0.0
 30
0.0
  3
*Model_Space
  1

  0
ENDBLK
  5
21
330
1F
100
AcDbEntity
  8
0
100
AcDbBlockEnd
  0
BLOCK
  5
D4
330
D2
100
AcDbEntity
 67
     1
  8
0
100
AcDbBlockBegin
  2
*Paper_Space
 70
     0
 10
0.0
 20
0.0
 30
0.0
  3
*Paper_Space
  1

  0
ENDBLK
  5
D5
330
D2
100
AcDbEntity
 67
     1
  8
0
100
AcDbBlockEnd
  0
BLOCK
  5
D8
330
D6
100
AcDbEntity
 67
     1
  8
0
100
AcDbBlockBegin
  2
*Paper_Space0
 70
     0
 10
0.0
 20
0.0
 30
0.0
  3
*Paper_Space0
  1

  0
ENDBLK
  5
D9
330
D6
100
AcDbEntity
 67
     1
  8
0
100
AcDbBlockEnd
  0
BLOCK
  5
A008
330
A007
100
AcDbEntity
  8
0
100
AcDbBlockBegin
  2
SAE380_92_2-Front
 70
     0
 10
0.0
 20
0.0
 30
0.0
  3
SAE380_92_2-Front
  1

  0
SPLINE
  5
A00A
330
A007
100
AcDbEntity
  8
0
100
AcDbSpline
210
0.0
220
0.0
230
1.0
 70
     8
 71
     3
 72
    17
 73
    13
 74
     0
 42
0.000000001
 43
0.0000000001
 40
0.0
 40
0.0
 40
0.0
 40
0.0
 40
0.3704689058660782
 40
0.3704689058660782
 40
0.3704689058660782
 40
0.7029757053290038
 40
0.7029757053290038
 40
0.7029757053290038
 40
0.9335813790867151
 40
0.9335813790867151
 40
0.9335813790867151
 40
0.9938196524776168
 40
0.9938196524776168
 40
0.9938196524776168
 40
0.9938196524776168
 10
50.60606060606064
 20
16.56249999999994
 30
0.0
 10
50.25310981611774
 20
16.27455844103565
 30
0.0
 10
49.80994835339758
 20
16.04087523495883
 30
0.0
 10
49.38299606377646
 20
15.78869659271058
 30
0.0
 10
48.99979375692318
 20
15.56235880322499
 30
0.0
 10
48.63742190751519
 20
15.3233282980872
 30
0.0
 10
48.37998709144766
 20
15.01709169610839
 30
0.0
 10
48.20144659451997
 20
14.80470536884332
 30
0.0
 10
48.07197149374755
 20
14.55383081506673
 30
0.0
 10
48.02188707330174
 20
14.26575225716249
 30
0.0
 10
48.00880413842733
 20
14.19050105173324
 30
0.0
 10
48.00144719264917
 20
14.114460224942
 30
0.0
 10
48.00019293058451
 20
14.02721777757724
 30
0.0
  0
LINE
  5
A00B
330
A007
100
AcDbEntity
  8
0
100
AcDbLine
 10
50.0
 20
16.56249999999994
 30
0.0
 11
50.5569194825598
 21
16.56249999999994
 31
0.0
  0
LINE
  5
A00C
330
A007
100
AcDbEntity
  8
0
100
AcDbLine
 10
49.92566083936388
 20
16.56249999999994
 30
0.0
 11
50.0
 21
16.56249999999994
 31
0.0
  0
LINE
  5
A00D
330
A007
100
AcDbEntity
  8
0
100
AcDbLine
 10
48.00000000000001
 20
16.56249999999994
 30
0.0
 11
49.92566083936388
 21
16.56249999999994
 31
0.0
  0
SPLINE
  5
A00E
330
A007
100
AcDbEntity
  8
0
100
AcDbSpline
210
0.0
220
0.0
230
1.0
 70
     8
 71
     3
 72
    34
 73
    30
 74
     0
 42
0.000000001
 43
0.0000000001
 40
0.0386753941497445
 40
0.0386753941497445
 40
0.0386753941497445
 40
0.0386753941497445
 40
0.0400690164332928
 40
0.0400690164332928
 40
0.0422300052177524
 40
0.0422300052177524
 40
0.046582256058809
 40
0.046582256058809
 40
0.0508891064674843
 40
0.0508891064674843
 40
0.0582937990735589
 40
0.0582937990735589
 40
0.0594557675461495
 40
0.0594557675461495
 40
0.0599928501199462
 40
0.0599928501199462
 40
0.0605321583989449
 40
0.0605321583989449
 40
0.0616267650100566
 40
0.0616267650100566
 40
0.0637733272696927
 40
0.0637733272696927
 40
0.0659666105118287
 40
0.0659666105118287
 40
0.0702602013819015
 40
0.0702602013819015
 40
0.074409120878062
 40
0.074409120878062
 40
0.0786107582957802
 40
0.0786107582957802
 40
0.0786107582957802
 40
0.0786107582957802
 10
48.01076237536221
 20
14.25193571329966
 30
0.0
 10
48.01076237543011
 20
14.25193571406127
 30
0.0
 10
48.01071682911477
 20
14.25142605323171
 30
0.0
 10
48.01050739065054
 20
14.24903647871915
 30
0.0
 10
48.01029264998454
 20
14.24655930102317
 30
0.0
 10
48.0095036255903
 20
14.23710687118671
 30
0.0
 10
48.00878255798488
 20
14.22803078002561
 30
0.0
 10
48.00734070850477
 20
14.20794250983278
 30
0.0
 10
48.00660179367665
 20
14.19673968900378
 30
0.0
 10
48.00471727246165
 20
14.16486605017076
 30
0.0
 10
48.00363714620065
 20
14.14252578558374
 30
0.0
 10
48.00268940896359
 20
14.11808580500225
 30
0.0
 10
48.00256714946022
 20
14.1148052081845
 30
0.0
 10
48.00240922928615
 20
14.11042564449488
 30
0.0
 10
48.00236230133325
 20
14.109101204608
 30
0.0
 10
48.00227921117363
 20
14.10672538346181
 30
0.0
 10
48.00224294629678
 20
14.10567121729626
 30
0.0
 10
48.00215682786578
 20
14.10314707185806
 30
0.0
 10
48.00213183223316
 20
14.10239094383648
 30
0.0
 10
48.0020797688846
 20
14.10082551518506
 30
0.0
 10
48.00205407045011
 20
14.10006685418359
 30
0.0
 10
48.00188650420623
 20
14.09481666071133
 30
0.0
 10
48.00174003349493
 20
14.09008342619016
 30
0.0
 10
48.00133707523386
 20
14.0760188152421
 30
0.0
 10
48.00107972892712
 20
14.065792076723
 30
0.0
 10
48.00064494393966
 20
14.04539602813354
 30
0.0
 10
48.00046314805126
 20
14.03514634980983
 30
0.0
 10
48.00017748913609
 20
14.01574022879233
 30
0.0
 10
48.00007420899938
 20
14.00646724369574
 30
0.0
 10
48.00001270370312
 20
13.99999987901939
 30
0.0
  0
SPLINE
  5
A00F
330
A007
100
AcDbEntity
  8
0
100
AcDbSpline
210
0.0
220
0.0
230
1.0
 70
     8
 71
     3
 72
    10
 73
     6
 74
     0
 42
0.000000001
 43
0.0000000001
 40
0.0151313066583242
 40
0.0151313066583242
 40
0.0151313066583242
 40
0.0151313066583242
 40
0.0171749157312009
 40
0.0171749157312009
 40
0.0184199763882144
 40
0.0184199763882144
 40
0.0184199763882144
 40
0.0184199763882144
 10
48.00034648599055
 20
14.02718593616423
 30
0.0
 10
48.00026744377071
 20
14.02166108317709
 30
0.0
 10
48.00019757809582
 20
14.0160296788519
 30
0.0
 10
48.00010254081229
 20
14.00692296198124
 30
0.0
 10
48.00007042308984
 20
14.00346143001015
 30
0.0
 10
48.00004220846266
 20
13.99999966335058
 30
0.0
  0
SPLINE
  5
A010
330
A007
100
AcDbEntity
  8
0
100
AcDbSpline
210
0.0
220
0.0
230
1.0
 70
     8
 71
     3
 72
     8
 73
     4
 74
     0
 42
0.000000001
 43
0.0000000001
 40
0.0027244406758758
 40
0.0027244406758758
 40
0.0027244406758758
 40
0.0027244406758758
 40
0.008671291755335
 40
0.008671291755335
 40
0.008671291755335
 40
0.008671291755335
 10
48.00001376180642
 20
14.00201328598759
 30
0.0
 10
48.00001376180643
 20
14.00201328598956
 30
0.0
 10
48.00000357969385
 20
14.00037332459196
 30
0.0
 10
48.00000179639029
 20
13.9999999915989
 30
0.0
  0
SPLINE
  5
A011
330
A007
100
AcDbEntity
  8
0
100
AcDbSpline
210
0.0
220
0.0
230
1.0
 70
     8
 71
     3
 72
     8
 73
     4
 74
     0
 42
0.000000001
 43
0.0000000001
 40
0.0
 40
0.0
 40
0.0
 40
0.0
 40
0.0015511722952577
 40
0.0015511722952577
 40
0.0015511722952577
 40
0.0015511722952577
 10
45.99955984654378
 20
14.00000111615404
 30
0.0
 10
45.99956565327774
 20
14.00446881097967
 30
0.0
 10
45.99957076641541
 20
14.00884708258379
 30
0.0
 10
45.99957512909046
 20
14.0130759132318
 30
0.0
  0
SPLINE
  5
A012
330
A007
100
AcDbEntity
  8
0
100
AcDbSpline
210
0.0
220
0.0
230
1.0
 70
     8
 71
     3
 72
    16
 73
    12
 74
     0
 42
0.000000001
 43
0.0000000001
 40
0.0
 40
0.0
 40
0.0
 40
0.0
 40
0.0021186811672217
 40
0.0021186811672217
 40
0.0037963488455753
 40
0.0037963488455753
 40
0.006049011015237
 40
0.006049011015237
 40
0.0082160740713292
 40
0.0082160740713292
 40
0.0100715168736811
 40
0.0100715168736811
 40
0.0100715168736811
 40
0.0100715168736811
 10
45.99977770285781
 20
13.99999671130077
 30
0.0
 10
45.99967060184467
 20
14.00696262094365
 30
0.0
 10
45.99956026411917
 20
14.01406437692988
 30
0.0
 10
45.99936153534919
 20
14.02670814076594
 30
0.0
 10
45.99927271949043
 20
14.03230570790262
 30
0.0
 10
45.99907108313977
 20
14.04490248803163
 30
0.0
 10
45.99895813017091
 20
14.05187273931647
 30
0.0
 10
45.99876083666424
 20
14.06395003183659
 30
0.0
 10
45.99867338960632
 20
14.06925359837398
 30
0.0
 10
45.99853375467251
 20
14.07766822125696
 30
0.0
 10
45.99847718644901
 20
14.08105233812445
 30
0.0
 10
45.9984278989367
 20
14.08398349775224
 30
0.0
  0
SPLINE
  5
A013
330
A007
100
AcDbEntity
  8
0
100
AcDbSpline
210
0.0
220
0.0
230
1.0
 70
     8
 71
     3
 72
    34
 73
    30
 74
     0
 42
0.000000001
 43
0.0000000001
 40
0.0018826910019326
 40
0.0018826910019326
 40
0.0018826910019326
 40
0.0018826910019326
 40
0.0067931669848413
 40
0.0067931669848413
 40
0.0148581762622147
 40
0.0148581762622147
 40
0.0216571624594527
 40
0.0216571624594527
 40
0.0241181605750534
 40
0.0241181605750534
 40
0.0262721351086886
 40
0.0262721351086886
 40
0.029118397460771
 40
0.029118397460771
 40
0.0315307617203287
 40
0.0315307617203287
 40
0.0346506209072775
 40
0.0346506209072775
 40
0.0395925192808651
 40
0.0395925192808651
 40
0.0489047040192831
 40
0.0489047040192831
 40
0.0719038370962341
 40
0.0719038370962341
 40
0.1414749569529061
 40
0.1414749569529061
 40
0.2235343182688181
 40
0.2235343182688181
 40
0.2662176350905033
 40
0.2662176350905033
 40
0.2662176350905033
 40
0.2662176350905033
 10
45.9999340857556
 20
14.0038215430025
 30
0.0
 10
45.99986408235892
 20
14.00784010262193
 30
0.0
 10
45.999762295071
 20
14.01358798899232
 30
0.0
 10
45.99943617609226
 20
14.03150095251145
 30
0.0
 10
45.99917379097109
 20
14.0454790576125
 30
0.0
 10
45.99862147508183
 20
14.07412851659114
 30
0.0
 10
45.99834195422468
 20
14.08836978785463
 30
0.0
 10
45.99789287056428
 20
14.11129985233232
 30
0.0
 10
45.99776556978475
 20
14.11780783860602
 30
0.0
 10
45.99751102761152
 20
14.13092137184804
 30
0.0
 10
45.99738418371858
 20
14.13749599511028
 30
0.0
 10
45.99708160721077
 20
14.1533917250235
 30
0.0
 10
45.99689912594505
 20
14.16314759801939
 30
0.0
 10
45.99658164289027
 20
14.18063164068922
 30
0.0
 10
45.99644054079667
 20
14.18860762349743
 30
0.0
 10
45.99613963834463
 20
14.20613328489183
 30
0.0
 10
45.99598354352597
 20
14.21562306645574
 30
0.0
 10
45.99561575572596
 20
14.23897255824731
 30
0.0
 10
45.99542133084391
 20
14.25235292940713
 30
0.0
 10
45.99492632777887
 20
14.28908036033656
 30
0.0
 10
45.99467887913431
 20
14.31107662904767
 30
0.0
 10
45.99397377071572
 20
14.38483545400558
 30
0.0
 10
45.99373075802978
 20
14.43325128631899
 30
0.0
 10
45.99330496971688
 20
14.63524513208809
 30
0.0
 10
45.99455225584626
 20
14.81157714250169
 30
0.0
 10
45.99793365447334
 20
15.23302851646161
 30
0.0
 10
45.99943798482326
 20
15.48841649690216
 30
0.0
 10
45.99998708512249
 20
15.89240744779324
 30
0.0
 10
45.99998191116085
 20
16.03407841108416
 30
0.0
 10
45.999989370187
 20
16.17586272152214
 30
0.0
  0
SPLINE
  5
A014
330
A007
100
AcDbEntity
  8
0
100
AcDbSpline
210
0.0
220
0.0
230
1.0
 70
     8
 71
     3
 72
    12
 73
     8
 74
     0
 42
0.000000001
 43
0.0000000001
 40
0.0
 40
0.0
 40
0.0
 40
0.0
 40
0.0030437042992182
 40
0.0030437042992182
 40
0.0059481041548802
 40
0.0059481041548802
 40
0.00770146413366
 40
0.00770146413366
 40
0.00770146413366
 40
0.00770146413366
 10
45.99994095221157
 20
13.9999998794708
 30
0.0
 10
45.99992879819978
 20
14.00696128006575
 30
0.0
 10
45.99991751862593
 20
14.01274901427935
 30
0.0
 10
45.99989988569944
 20
14.02086801902538
 30
0.0
 10
45.99989321745716
 20
14.02345476435092
 30
0.0
 10
45.99988738789281
 20
14.02558168403569
 30
0.0
 10
45.99988625762903
 20
14.02594367654122
 30
0.0
 10
45.99988625762907
 20
14.0259436765237
 30
0.0
  0
LINE
  5
A015
330
A007
100
AcDbEntity
  8
0
100
AcDbLine
 10
44.0
 20
-2.0
 30
0.0
 11
-44.0
 21
-2.000000000000002
 31
0.0
  0
LINE
  5
A016
330
A007
100
AcDbEntity
  8
0
100
AcDbLine
 10
-43.99999999999999
 20
0.0
 30
0.0
 11
44.00000000000001
 21
0.0
 31
0.0
  0
LINE
  5
A017
330
A007
100
AcDbEntity
  8
0
100
AcDbLine
 10
-49.9256608393639
 20
16.56249999999994
 30
0.0
 11
-48.00000000000001
 21
16.56249999999994
 31
0.0
  0
LINE
  5
A018
330
A007
100
AcDbEntity
  8
0
100
AcDbLine
 10
-50.0
 20
16.56249999999994
 30
0.0
 11
-49.9256608393639
 21
16.56249999999994
 31
0.0
  0
LINE
  5
A019
330
A007
100
AcDbEntity
  8
0
100
AcDbLine
 10
-50.5569194825598
 20
16.56249999999994
 30
0.0
 11
-50.0
 21
16.56249999999994
 31
0.0
  0
SPLINE
  5
A01A
330
A007
100
AcDbEntity
  8
0
100
AcDbSpline
210
0.0
220
0.0
230
1.0
 70
     8
 71
     3
 72
    17
 73
    13
 74
     0
 42
0.000000001
 43
0.0000000001
 40
0.0
 40
0.0
 40
0.0
 40
0.0
 40
0.3704689058660782
 40
0.3704689058660782
 40
0.3704689058660782
 40
0.7029757053290038
 40
0.7029757053290038
 40
0.7029757053290038
 40
0.9335813790867151
 40
0.9335813790867151
 40
0.9335813790867151
 40
0.9938196524826892
 40
0.9938196524826892
 40
0.9938196524826892
 40
0.9938196524826892
 10
-50.60606060606064
 20
16.56249999999994
 30
0.0
 10
-50.25310981611774
 20
16.27455844103565
 30
0.0
 10
-49.80994835339758
 20
16.04087523495883
 30
0.0
 10
-49.38299606377646
 20
15.78869659271058
 30
0.0
 10
-48.99979375692318
 20
15.56235880322499
 30
0.0
 10
-48.63742190751519
 20
15.3233282980872
 30
0.0
 10
-48.37998709144766
 20
15.01709169610839
 30
0.0
 10
-48.20144659451997
 20
14.80470536884332
 30
0.0
 10
-48.07197149374755
 20
14.55383081506673
 30
0.0
 10
-48.02188707330174
 20
14.26575225716249
 30
0.0
 10
-48.00880413842623
 20
14.19050105172691
 30
0.0
 10
-48.00144719264793
 20
14.11446022492919
 30
0.0
 10
-48.00019293058422
 20
14.0272177775552
 30
0.0
  0
SPLINE
  5
A01B
330
A007
100
AcDbEntity
  8
0
100
AcDbSpline
210
0.0
220
0.0
230
1.0
 70
     8
 71
     3
 72
     8
 73
     4
 74
     0
 42
0.000000001
 43
0.0000000001
 40
0.0195591542941514
 40
0.0195591542941514
 40
0.0195591542941514
 40
0.0195591542941514
 40
0.0211163332927662
 40
0.0211163332927662
 40
0.0211163332927662
 40
0.0211163332927662
 10
-45.99957522649605
 20
14.01307786961141
 30
0.0
 10
-45.99957087708061
 20
14.00886173310347
 30
0.0
 10
-45.99956567554109
 20
14.00448593021062
 30
0.0
 10
-45.9995598463037
 20
14.00000093147663
 30
0.0
  0
SPLINE
  5
A01C
330
A007
100
AcDbEntity
  8
0
100
AcDbSpline
210
0.0
220
0.0
230
1.0
 70
     8
 71
     3
 72
    16
 73
    12
 74
     0
 42
0.000000001
 43
0.0000000001
 40
0.0328551489484967
 40
0.0328551489484967
 40
0.0328551489484967
 40
0.0328551489484967
 40
0.0346121774638749
 40
0.0346121774638749
 40
0.0362943945873625
 40
0.0362943945873625
 40
0.0388726384034118
 40
0.0388726384034118
 40
0.0410449516634055
 40
0.0410449516634055
 40
0.0429128462514226
 40
0.0429128462514226
 40
0.0429128462514226
 40
0.0429128462514226
 10
-45.99842867933503
 20
14.08393709593883
 30
0.0
 10
-45.99847544363725
 20
14.08115583922208
 30
0.0
 10
-45.99852869183448
 20
14.07797089975892
 30
0.0
 10
-45.9986466552525
 20
14.07086663125924
 30
0.0
 10
-45.99871142252588
 20
14.06694586927569
 30
0.0
 10
-45.99889097008354
 20
14.05600293745151
 30
0.0
 10
-45.9990175740778
 20
14.04822182669767
 30
0.0
 10
-45.9992592845877
 20
14.03315935354851
 30
0.0
 10
-45.99937543013549
 20
14.02584027115332
 30
0.0
 10
-45.99958650204186
 20
14.01237478847684
 30
0.0
 10
-45.9996832787663
 20
14.00613810667439
 30
0.0
 10
-45.99977770232583
 20
13.99999674590085
 30
0.0
  0
SPLINE
  5
A01D
330
A007
100
AcDbEntity
  8
0
100
AcDbSpline
210
0.0
220
0.0
230
1.0
 70
     8
 71
     3
 72
    12
 73
     8
 74
     0
 42
0.000000001
 43
0.0000000001
 40
0.0138055033789741
 40
0.0138055033789741
 40
0.0138055033789741
 40
0.0138055033789741
 40
0.0169840864487777
 40
0.0169840864487777
 40
0.0189304896069716
 40
0.0189304896069716
 40
0.0215081521963132
 40
0.0215081521963132
 40
0.0215081521963132
 40
0.0215081521963132
 10
-45.99988625762906
 20
14.02594367652433
 30
0.0
 10
-45.99988625767156
 20
14.02594366282578
 30
0.0
 10
-45.99989009444198
 20
14.02472369131194
 30
0.0
 10
-45.99990126112063
 20
14.02016532501617
 30
0.0
 10
-45.99990666453876
 20
14.01781781419647
 30
0.0
 10
-45.99992101920997
 20
14.0109523012409
 30
0.0
 10
-45.99993065918656
 20
14.00589537089901
 30
0.0
 10
-45.99994095221748
 20
13.9999998760913
 30
0.0
  0
SPLINE
  5
A01E
330
A007
100
AcDbEntity
  8
0
100
AcDbSpline
210
0.0
220
0.0
230
1.0
 70
     8
 71
     3
 72
    30
 73
    26
 74
     0
 42
0.000000001
 43
0.0000000001
 40
0.0
 40
0.0
 40
0.0
 40
0.0
 40
0.0655519173788137
 40
0.0655519173788137
 40
0.1471090820787653
 40
0.1471090820787653
 40
0.1864921616164097
 40
0.1864921616164097
 40
0.2244293777613731
 40
0.2244293777613731
 40
0.2339028686152442
 40
0.2339028686152442
 40
0.2360480835331199
 40
0.2360480835331199
 40
0.2376820831818519
 40
0.2376820831818519
 40
0.2393187050088538
 40
0.2393187050088538
 40
0.2426426045364985
 40
0.2426426045364985
 40
0.2492713510974256
 40
0.2492713510974256
 40
0.2559211531323702
 40
0.2559211531323702
 40
0.2643743842922825
 40
0.2643743842922825
 40
0.2643743842922825
 40
0.2643743842922825
 10
-45.9999893703141
 20
16.17586513774945
 30
0.0
 10
-45.99997791456828
 20
15.95811650550434
 30
0.0
 10
-45.99997499770451
 20
15.73954970567898
 30
0.0
 10
-45.99847085417329
 20
15.2776575365365
 30
0.0
 10
-45.9961838590859
 20
15.03632767779715
 30
0.0
 10
-45.99399784618608
 20
14.72034612165264
 30
0.0
 10
-45.99356180811484
 20
14.62410550962318
 30
0.0
 10
-45.99357525268431
 20
14.45120046570966
 30
0.0
 10
-45.99385400188361
 20
14.3764360700338
 30
0.0
 10
-45.99531499383437
 20
14.25912512396121
 30
0.0
 10
-45.99568024104233
 20
14.2336313446851
 30
0.0
 10
-45.99628324925368
 20
14.1977105450773
 30
0.0
 10
-45.99640194862835
 20
14.19083320185694
 30
0.0
 10
-45.99662080656343
 20
14.17847876310226
 30
0.0
 10
-45.99671936624135
 20
14.17301790063006
 30
0.0
 10
-45.99691928537952
 20
14.1621179097197
 30
0.0
 10
-45.99702161540381
 20
14.15662622060625
 30
0.0
 10
-45.99732646209703
 20
14.14045781632547
 30
0.0
 10
-45.99752714706706
 20
14.13007201593531
 30
0.0
 10
-45.99806276928497
 20
14.10255026842868
 30
0.0
 10
-45.99835962486371
 20
14.08751747800616
 30
0.0
 10
-45.99889077353362
 20
14.06022393378902
 30
0.0
 10
-45.99912912124347
 20
14.04779293715265
 30
0.0
 10
-45.99959882885831
 20
14.02272523026925
 30
0.0
 10
-45.99981357975654
 20
14.01070458061584
 30
0.0
 10
-45.99993418558885
 20
14.00380826166015
 30
0.0
  0
SPLINE
  5
A01F
330
A007
100
AcDbEntity
  8
0
100
AcDbSpline
210
0.0
220
0.0
230
1.0
 70
     8
 71
     3
 72
    16
 73
    12
 74
     0
 42
0.000000001
 43
0.0000000001
 40
0.0
 40
0.0
 40
0.0
 40
0.0
 40
0.0048245587499942
 40
0.0048245587499942
 40
0.0084632884691491
 40
0.0084632884691491
 40
0.0094798804114639
 40
0.0094798804114639
 40
0.0099662893143716
 40
0.0099662893143716
 40
0.0100234587589186
 40
0.0100234587589186
 40
0.0100234587589186
 40
0.0100234587589186
 10
-48.00004220846265
 20
13.99999966335057
 30
0.0
 10
-48.00015153898056
 20
14.01341386653311
 30
0.0
 10
-48.00032268955103
 20
14.0268714152685
 30
0.0
 10
-48.00070285066748
 20
14.04890462704021
 30
0.0
 10
-48.00090173277795
 20
14.05824125626472
 30
0.0
 10
-48.00111304294788
 20
14.06712883674286
 30
0.0
 10
-48.00115674471989
 20
14.06889787746686
 30
0.0
 10
-48.00119778520606
 20
14.07053633780171
 30
0.0
 10
-48.00120726678985
 20
14.07091044358197
 30
0.0
 10
-48.00120931528247
 20
14.07099134022957
 30
0.0
 10
-48.00120942614747
 20
14.07099571700272
 30
0.0
 10
-48.00120942614494
 20
14.07099571690282
 30
0.0
  0
SPLINE
  5
A020
330
A007
100
AcDbEntity
  8
0
100
AcDbSpline
210
0.0
220
0.0
230
1.0
 70
     8
 71
     3
 72
    22
 73
    18
 74
     0
 42
0.000000001
 43
0.0000000001
 40
0.0
 40
0.0
 40
0.0
 40
0.0
 40
0.0032700619142556
 40
0.0032700619142556
 40
0.0073547718063712
 40
0.0073547718063712
 40
0.0134790967362489
 40
0.0134790967362489
 40
0.0266727729782734
 40
0.0266727729782734
 40
0.0338106032355274
 40
0.0338106032355274
 40
0.0369602731624797
 40
0.0369602731624797
 40
0.0386157498749533
 40
0.0386157498749533
 40
0.0391357752350652
 40
0.0391357752350652
 40
0.0391357752350652
 40
0.0391357752350652
 10
-48.00001270370312
 20
13.99999987901938
 30
0.0
 10
-48.00006057221406
 20
14.00503331736724
 30
0.0
 10
-48.00013333231866
 20
14.01178538139186
 30
0.0
 10
-48.00035309008359
 20
14.0282053201151
 30
0.0
 10
-48.00051468965804
 20
14.03822469446614
 30
0.0
 10
-48.00100170866784
 20
14.06300878279739
 30
0.0
 10
-48.00137875513588
 20
14.07796058907747
 30
0.0
 10
-48.00257920052034
 20
14.11791955115584
 30
0.0
 10
-48.00367212464266
 20
14.14669817988831
 30
0.0
 10
-48.00692053703311
 20
14.20237399840969
 30
0.0
 10
-48.00823603397724
 20
14.22096280695715
 30
0.0
 10
-48.00977350598103
 20
14.24041358529638
 30
0.0
 10
-48.01019627948253
 20
14.24542617694142
 30
0.0
 10
-48.01060631403153
 20
14.25017448528187
 30
0.0
 10
-48.01070578017162
 20
14.25129826463491
 30
0.0
 10
-48.01075616954791
 20
14.25186613876508
 30
0.0
 10
-48.0107623753443
 20
14.25193571309862
 30
0.0
 10
-48.01076237536213
 20
14.25193571329868
 30
0.0
  0
SPLINE
  5
A021
330
A007
100
AcDbEntity
  8
0
100
AcDbSpline
210
0.0
220
0.0
230
1.0
 70
     8
 71
     3
 72
     8
 73
     4
 74
     0
 42
0.000000001
 43
0.0000000001
 40
0.0
 40
0.0
 40
0.0
 40
0.0
 40
0.005946851101673
 40
0.005946851101673
 40
0.005946851101673
 40
0.005946851101673
 10
-48.00000179639028
 20
13.99999999159889
 30
0.0
 10
-48.00000357969384
 20
14.00037332459075
 30
0.0
 10
-48.00001376180642
 20
14.00201328599254
 30
0.0
 10
-48.00001376180638
 20
14.00201328598902
 30
0.0
  0
ARC
  5
A022
330
A007
100
AcDbEntity
  8
0
100
AcDbCircle
 10
-43.99999999999999
 20
2.0
 30
0.0
 40
4.000000000000003
100
AcDbArc
 50
180.0
 51
270.0
  0
ARC
  5
A023
330
A007
100
AcDbEntity
  8
0
100
AcDbCircle
 10
-43.99999999999999
 20
2.0
 30
0.0
 40
2.000000000000001
100
AcDbArc
 50
180.0
 51
270.0
  0
ARC
  5
A024
330
A007
100
AcDbEntity
  8
0
100
AcDbCircle
 10
43.99999999999999
 20
2.0
 30
0.0
 40
4.000000000000003
100
AcDbArc
 50
270.0
 51
0.0
  0
LINE
  5
A025
330
A007
100
AcDbEntity
  8
0
100
AcDbLine
 10
50.60606060606068
 20
16.56249999999994
 30
0.0
 11
87.50000000000007
 21
46.99999999999995
 31
0.0
  0
LINE
  5
A026
330
A007
100
AcDbEntity
  8
0
100
AcDbLine
 10
45.99999999999998
 20
13.99999999999998
 30
0.0
 11
46.0
 21
46.99999999999995
 31
0.0
  0
LINE
  5
A027
330
A007
100
AcDbEntity
  8
0
100
AcDbLine
 10
47.99999999999998
 20
13.99999999999998
 30
0.0
 11
45.99999999999998
 21
13.99999999999998
 31
0.0
  0
LINE
  5
A028
330
A007
100
AcDbEntity
  8
0
100
AcDbLine
 10
48.0
 20
46.99999999999995
 30
0.0
 11
47.99999999999998
 21
13.99999999999998
 31
0.0
  0
LINE
  5
A029
330
A007
100
AcDbEntity
  8
0
100
AcDbLine
 10
48.0
 20
46.99999999999995
 30
0.0
 11
46.0
 21
46.99999999999995
 31
0.0
  0
LINE
  5
A02A
330
A007
100
AcDbEntity
  8
0
100
AcDbLine
 10
46.0
 20
46.99999999999995
 30
0.0
 11
46.0
 21
143.9999999999999
 31
0.0
  0
LINE
  5
A02B
330
A007
100
AcDbEntity
  8
0
100
AcDbLine
 10
48.0
 20
143.9999999999999
 30
0.0
 11
48.0
 21
46.99999999999995
 31
0.0
  0
LINE
  5
A02C
330
A007
100
AcDbEntity
  8
0
100
AcDbLine
 10
46.0
 20
143.9999999999999
 30
0.0
 11
48.0
 21
143.9999999999999
 31
0.0
  0
LINE
  5
A02D
330
A007
100
AcDbEntity
  8
0
100
AcDbLine
 10
47.99999999999998
 20
13.99999999999998
 30
0.0
 11
48.0
 21
1.999999999999999
 31
0.0
  0
LINE
  5
A02E
330
A007
100
AcDbEntity
  8
0
100
AcDbLine
 10
45.99999999999998
 20
2.0
 30
0.0
 11
45.99999999999998
 21
13.99999999999998
 31
0.0
  0
ARC
  5
A02F
330
A007
100
AcDbEntity
  8
0
100
AcDbCircle
 10
43.99999999999999
 20
2.0
 30
0.0
 40
2.000000000000001
100
AcDbArc
 50
270.0
 51
0.0
  0
LINE
  5
A030
330
A007
100
AcDbEntity
  8
0
100
AcDbLine
 10
50.0
 20
144.0
 30
0.0
 11
48.0
 21
144.0
 31
0.0
  0
LINE
  5
A031
330
A007
100
AcDbEntity
  8
0
100
AcDbLine
 10
87.50000000000007
 20
46.99999999999995
 30
0.0
 11
87.5
 21
144.0
 31
0.0
  0
LINE
  5
A032
330
A007
100
AcDbEntity
  8
0
100
AcDbLine
 10
87.5
 20
144.0
 30
0.0
 11
50.0
 21
144.0
 31
0.0
  0
CIRCLE
  5
A033
330
A007
100
AcDbEntity
  8
0
100
AcDbCircle
 10
68.0
 20
124.0
 30
0.0
 40
6.5
  0
CIRCLE
  5
A034
330
A007
100
AcDbEntity
  8
0
100
AcDbCircle
 10
79.0
 20
129.0
 30
0.0
 40
2.5
  0
LINE
  5
A035
330
A007
100
AcDbEntity
  8
0
100
AcDbLine
 10
-87.50000000000007
 20
46.99999999999995
 30
0.0
 11
-50.60606060606068
 21
16.56249999999994
 31
0.0
  0
LINE
  5
A036
330
A007
100
AcDbEntity
  8
0
100
AcDbLine
 10
-46.0
 20
46.99999999999995
 30
0.0
 11
-45.99999999999998
 21
13.99999999999998
 31
0.0
  0
LINE
  5
A037
330
A007
100
AcDbEntity
  8
0
100
AcDbLine
 10
-48.0
 20
46.99999999999995
 30
0.0
 11
-46.0
 21
46.99999999999995
 31
0.0
  0
LINE
  5
A038
330
A007
100
AcDbEntity
  8
0
100
AcDbLine
 10
-47.99999999999998
 20
13.99999999999998
 30
0.0
 11
-48.0
 21
46.99999999999995
 31
0.0
  0
LINE
  5
A039
330
A007
100
AcDbEntity
  8
0
100
AcDbLine
 10
-45.99999999999998
 20
13.99999999999998
 30
0.0
 11
-47.99999999999998
 21
13.99999999999998
 31
0.0
  0
LINE
  5
A03A
330
A007
100
AcDbEntity
  8
0
100
AcDbLine
 10
-46.0
 20
143.9999999999999
 30
0.0
 11
-46.0
 21
46.99999999999995
 31
0.0
  0
LINE
  5
A03B
330
A007
100
AcDbEntity
  8
0
100
AcDbLine
 10
-48.0
 20
143.9999999999999
 30
0.0
 11
-46.0
 21
143.9999999999999
 31
0.0
  0
LINE
  5
A03C
330
A007
100
AcDbEntity
  8
0
100
AcDbLine
 10
-48.0
 20
46.99999999999995
 30
0.0
 11
-48.0
 21
143.9999999999999
 31
0.0
  0
CIRCLE
  5
A03D
330
A007
100
AcDbEntity
  8
0
100
AcDbCircle
 10
-68.0
 20
53.99999999999998
 30
0.0
 40
6.5
  0
CIRCLE
  5
A03E
330
A007
100
AcDbEntity
  8
0
100
AcDbCircle
 10
68.0
 20
53.99999999999998
 30
0.0
 40
6.5
  0
CIRCLE
  5
A03F
330
A007
100
AcDbEntity
  8
0
100
AcDbCircle
 10
-68.0
 20
124.0
 30
0.0
 40
6.5
  0
CIRCLE
  5
A040
330
A007
100
AcDbEntity
  8
0
100
AcDbCircle
 10
-56.99999999999999
 20
38.99999999999998
 30
0.0
 40
2.5
  0
CIRCLE
  5
A041
330
A007
100
AcDbEntity
  8
0
100
AcDbCircle
 10
-56.99999999999999
 20
58.99999999999998
 30
0.0
 40
2.5
  0
CIRCLE
  5
A042
330
A007
100
AcDbEntity
  8
0
100
AcDbCircle
 10
-56.99999999999999
 20
78.99999999999998
 30
0.0
 40
2.5
  0
CIRCLE
  5
A043
330
A007
100
AcDbEntity
  8
0
100
AcDbCircle
 10
-56.99999999999999
 20
98.99999999999998
 30
0.0
 40
2.5
  0
CIRCLE
  5
A044
330
A007
100
AcDbEntity
  8
0
100
AcDbCircle
 10
-56.99999999999999
 20
119.0
 30
0.0
 40
2.5
  0
CIRCLE
  5
A045
330
A007
100
AcDbEntity
  8
0
100
AcDbCircle
 10
56.99999999999999
 20
38.99999999999998
 30
0.0
 40
2.5
  0
CIRCLE
  5
A046
330
A007
100
AcDbEntity
  8
0
100
AcDbCircle
 10
56.99999999999999
 20
58.99999999999998
 30
0.0
 40
2.5
  0
CIRCLE
  5
A047
330
A007
100
AcDbEntity
  8
0
100
AcDbCircle
 10
56.99999999999999
 20
78.99999999999998
 30
0.0
 40
2.5
  0
CIRCLE
  5
A048
330
A007
100
AcDbEntity
  8
0
100
AcDbCircle
 10
56.99999999999999
 20
98.99999999999998
 30
0.0
 40
2.5
  0
CIRCLE
  5
A049
330
A007
100
AcDbEntity
  8
0
100
AcDbCircle
 10
56.99999999999999
 20
119.0
 30
0.0
 40
2.5
  0
CIRCLE
  5
A04A
330
A007
100
AcDbEntity
  8
0
100
AcDbCircle
 10
-56.99999999999999
 20
139.0
 30
0.0
 40
2.5
  0
CIRCLE
  5
A04B
330
A007
100
AcDbEntity
  8
0
100
AcDbCircle
 10
56.99999999999999
 20
139.0
 30
0.0
 40
2.5
  0
CIRCLE
  5
A04C
330
A007
100
AcDbEntity
  8
0
100
AcDbCircle
 10
-79.0
 20
48.99999999999998
 30
0.0
 40
2.5
  0
CIRCLE
  5
A04D
330
A007
100
AcDbEntity
  8
0
100
AcDbCircle
 10
-79.0
 20
68.99999999999998
 30
0.0
 40
2.5
  0
CIRCLE
  5
A04E
330
A007
100
AcDbEntity
  8
0
100
AcDbCircle
 10
-79.0
 20
88.99999999999998
 30
0.0
 40
2.5
  0
CIRCLE
  5
A04F
330
A007
100
AcDbEntity
  8
0
100
AcDbCircle
 10
-79.0
 20
109.0
 30
0.0
 40
2.5
  0
CIRCLE
  5
A050
330
A007
100
AcDbEntity
  8
0
100
AcDbCircle
 10
79.0
 20
48.99999999999998
 30
0.0
 40
2.5
  0
CIRCLE
  5
A051
330
A007
100
AcDbEntity
  8
0
100
AcDbCircle
 10
79.0
 20
68.99999999999998
 30
0.0
 40
2.5
  0
CIRCLE
  5
A052
330
A007
100
AcDbEntity
  8
0
100
AcDbCircle
 10
79.0
 20
88.99999999999998
 30
0.0
 40
2.5
  0
CIRCLE
  5
A053
330
A007
100
AcDbEntity
  8
0
100
AcDbCircle
 10
79.0
 20
109.0
 30
0.0
 40
2.5
  0
CIRCLE
  5
A054
330
A007
100
AcDbEntity
  8
0
100
AcDbCircle
 10
-79.0
 20
129.0
 30
0.0
 40
2.5
  0
LINE
  5
A055
330
A007
100
AcDbEntity
  8
0
100
AcDbLine
 10
-87.5
 20
144.0
 30
0.0
 11
-50.0
 21
144.0
 31
0.0
  0
LINE
  5
A056
330
A007
100
AcDbEntity
  8
0
100
AcDbLine
 10
-87.50000000000007
 20
46.99999999999995
 30
0.0
 11
-87.5
 21
144.0
 31
0.0
  0
LINE
  5
A057
330
A007
100
AcDbEntity
  8
0
100
AcDbLine
 10
-45.99999999999998
 20
2.0
 30
0.0
 11
-45.99999999999998
 21
13.99999999999998
 31
0.0
  0
LINE
  5
A058
330
A007
100
AcDbEntity
  8
0
100
AcDbLine
 10
-47.99999999999998
 20
13.99999999999998
 30
0.0
 11
-48.0
 21
1.999999999999999
 31
0.0
  0
LINE
  5
A059
330
A007
100
AcDbEntity
  8
0
100
AcDbLine
 10
-50.0
 20
144.0
 30
0.0
 11
-48.0
 21
144.0
 31
0.0
  0
ENDBLK
  5
A009
330
A007
100
AcDbEntity
  8
0
100
AcDbBlockEnd
  0
BLOCK
  5
A05B
330
A05A
100
AcDbEntity
  8
0
100
AcDbBlockBegin
  2
SAE380_92_2-Left
 70
     0
 10
0.0
 20
0.0
 30
0.0
  3
SAE380_92_2-Left
  1

  0
LINE
  5
A05D
330
A05A
100
AcDbEntity
  8
0
100
AcDbLine
 10
1.999999999999999
 20
-2.0
 30
0.0
 11
86.0
 21
-2.000000000000002
 31
0.0
  0
LINE
  5
A05E
330
A05A
100
AcDbEntity
  8
0
100
AcDbLine
 10
2.000000000000003
 20
2.000000000000004
 30
0.0
 11
1.999999999999999
 21
-1.999999999999999
 31
0.0
  0
LINE
  5
A05F
330
A05A
100
AcDbEntity
  8
0
100
AcDbLine
 10
86.0
 20
-2.000000000000002
 30
0.0
 11
86.0
 21
2.0
 31
0.0
  0
SPLINE
  5
A060
330
A05A
100
AcDbEntity
  8
0
100
AcDbSpline
210
0.0
220
0.0
230
1.0
 70
     8
 71
     3
 72
    17
 73
    13
 74
     0
 42
0.000000001
 43
0.0000000001
 40
-0.9642391866715504
 40
-0.9642391866715504
 40
-0.9642391866715504
 40
-0.9642391866715504
 40
-0.7907552673919842
 40
-0.7907552673919842
 40
-0.7907552673919842
 40
-0.3883396848755196
 40
-0.3883396848755196
 40
-0.3883396848755196
 40
-0.1053184206007118
 40
-0.1053184206007118
 40
-0.1053184206007118
 40
0.0
 40
0.0
 40
0.0
 40
0.0
 10
1.991418259918768
 20
14.23869885963962
 30
0.0
 10
1.96631261289982
 20
14.60755087106889
 30
0.0
 10
1.887915385276902
 20
14.89349071918347
 30
0.0
 10
1.773393535461672
 20
15.10014472426965
 30
0.0
 10
1.507747145319926
 20
15.5795020744002
 30
0.0
 10
1.052077259779244
 20
15.69581939513412
 30
0.0
 10
0.6711423121668718
 20
15.8227234032495
 30
0.0
 10
0.4032285057344373
 20
15.91197574430884
 30
0.0
 10
0.1693290542135219
 20
16.01102292129228
 30
0.0
 10
0.0606817918141773
 20
16.23987558701493
 30
0.0
 10
0.0202517622621236
 20
16.32503668388845
 30
0.0
 10
0.0000166268648442
 20
16.43287618703205
 30
0.0
 10
0.0000000000000006
 20
16.56249999999991
 30
0.0
  0
LINE
  5
A061
330
A05A
100
AcDbEntity
  8
0
100
AcDbLine
 10
2.000000000000021
 20
16.56249999999994
 30
0.0
 11
2.001382055220198
 21
16.56249999999994
 31
0.0
  0
SPLINE
  5
A062
330
A05A
100
AcDbEntity
  8
0
100
AcDbSpline
210
0.0
220
0.0
230
1.0
 70
     8
 71
     3
 72
    17
 73
    13
 74
     0
 42
0.000000001
 43
0.0000000001
 40
0.0
 40
0.0
 40
0.0
 40
0.0
 40
0.3704689058660782
 40
0.3704689058660782
 40
0.3704689058660782
 40
0.7029757053290038
 40
0.7029757053290038
 40
0.7029757053290038
 40
0.9335813790867151
 40
0.9335813790867151
 40
0.9335813790867151
 40
1.0
 40
1.0
 40
1.0
 40
1.0
 10
2.000000000000024
 20
16.56249999999994
 30
0.0
 10
2.000006377019321
 20
16.27455844103565
 30
0.0
 10
2.000465619612788
 20
16.04087523495883
 30
0.0
 10
1.999851137318974
 20
15.78869659271058
 30
0.0
 10
1.999299621287243
 20
15.56235880322499
 30
0.0
 10
2.000043886462091
 20
15.3233282980872
 30
0.0
 10
2.000290307240818
 20
15.01709169610839
 30
0.0
 10
2.000461209098458
 20
14.80470536884332
 30
0.0
 10
2.000344409457279
 20
14.55383081506673
 30
0.0
 10
2.000001688218309
 20
14.26575225716249
 30
0.0
 10
1.999902978279046
 20
14.18278040213871
 30
0.0
 10
2.000565701782142
 20
14.09884858616608
 30
0.0
 10
2.000000000000103
 20
14.00000000000799
 30
0.0
  0
LINE
  5
A063
330
A05A
100
AcDbEntity
  8
0
100
AcDbLine
 10
0.0
 20
16.56249999999994
 30
0.0
 11
2.000000000000014
 21
16.56249999999994
 31
0.0
  0
SPLINE
  5
A064
330
A05A
100
AcDbEntity
  8
0
100
AcDbSpline
210
0.0
220
0.0
230
1.0
 70
     8
 71
     3
 72
    10
 73
     6
 74
     0
 42
0.000000001
 43
0.0000000001
 40
0.0
 40
0.0
 40
0.0
 40
0.0
 40
0.0050447020522227
 40
0.0050447020522227
 40
0.0085295656036435
 40
0.0085295656036435
 40
0.0085295656036435
 40
0.0085295656036435
 10
1.999900822933371
 20
14.00000014488268
 30
0.0
 10
1.999917130800641
 20
14.00948968036314
 30
0.0
 10
1.999894675346196
 20
14.0167965565926
 30
0.0
 10
1.999860226913919
 20
14.02420102394269
 30
0.0
 10
1.999847236260099
 20
14.02589350044933
 30
0.0
 10
1.99984723639502
 20
14.02589348227074
 30
0.0
  0
SPLINE
  5
A065
330
A05A
100
AcDbEntity
  8
0
100
AcDbSpline
210
0.0
220
0.0
230
1.0
 70
     8
 71
     3
 72
    10
 73
     6
 74
     0
 42
0.000000001
 43
0.0000000001
 40
0.0024765694703234
 40
0.0024765694703234
 40
0.0024765694703234
 40
0.0024765694703234
 40
0.0072954549584458
 40
0.0072954549584458
 40
0.0088101693718827
 40
0.0088101693718827
 40
0.0088101693718827
 40
0.0088101693718827
 10
1.999904719055287
 20
14.00820337971235
 30
0.0
 10
1.999848531803793
 20
14.01335133344932
 30
0.0
 10
1.999790292669246
 20
14.01790246959286
 30
0.0
 10
1.999755200236848
 20
14.02050654754855
 30
0.0
 10
1.999750203300754
 20
14.02086783939438
 30
0.0
 10
1.999750203295511
 20
14.02086783977505
 30
0.0
  0
SPLINE
  5
A066
330
A05A
100
AcDbEntity
  8
0
100
AcDbSpline
210
0.0
220
0.0
230
1.0
 70
     8
 71
     3
 72
    32
 73
    28
 74
     0
 42
0.000000001
 43
0.0000000001
 40
0.0018001225573547
 40
0.0018001225573547
 40
0.0018001225573547
 40
0.0018001225573547
 40
0.0049362173738727
 40
0.0049362173738727
 40
0.0136075453348002
 40
0.0136075453348002
 40
0.0157017063709557
 40
0.0157017063709557
 40
0.0187307323738266
 40
0.0187307323738266
 40
0.0214823019730429
 40
0.0214823019730429
 40
0.0252519500362833
 40
0.0252519500362833
 40
0.031587543238861
 40
0.031587543238861
 40
0.0456644161749737
 40
0.0456644161749737
 40
0.0667732380902249
 40
0.0667732380902249
 40
0.0825165685484255
 40
0.0825165685484255
 40
0.0966730598488231
 40
0.0966730598488231
 40
0.1029028077032518
 40
0.1029028077032518
 40
0.1065920357034778
 40
0.1065920357034778
 40
0.1065920357034778
 40
0.1065920357034778
 10
1.999906247788305
 20
14.00798857124127
 30
0.0
 10
1.999844678117555
 20
14.01309147055928
 30
0.0
 10
1.999769518746535
 20
14.01880950404657
 30
0.0
 10
1.999447828838717
 20
14.04063924747108
 30
0.0
 10
1.999163921222121
 20
14.05694762608729
 30
0.0
 10
1.998493513235748
 20
14.08502063600504
 30
0.0
 10
1.998344337743683
 20
14.09095202518793
 30
0.0
 10
1.997931874872431
 20
14.10633445595433
 30
0.0
 10
1.997640548523252
 20
14.11638174669426
 30
0.0
 10
1.997035115429471
 20
14.13554603696783
 30
0.0
 10
1.996720979240278
 20
14.1448309520738
 30
0.0
 10
1.995945012579184
 20
14.1663601728455
 30
0.0
 10
1.995465610122815
 20
14.17861339793079
 30
0.0
 10
1.994126232477979
 20
14.2105201005057
 30
0.0
 10
1.993220590487771
 20
14.22978942236522
 30
0.0
 10
1.990080783405259
 20
14.29046213013126
 30
0.0
 10
1.987547905434288
 20
14.33076288341749
 30
0.0
 10
1.980029006258434
 20
14.43019732770788
 30
0.0
 10
1.97440103606039
 20
14.48869773769122
 30
0.0
 10
1.962499623586408
 20
14.58544579246518
 30
0.0
 10
1.956677293653635
 20
14.6253444346284
 30
0.0
 10
1.945516041783354
 20
14.6916779230159
 30
0.0
 10
1.940045049337209
 20
14.71965030277104
 30
0.0
 10
1.934901777282473
 20
14.74437060908905
 30
0.0
 10
1.933704313908095
 20
14.74987665252083
 30
0.0
 10
1.932673978577699
 20
14.75457717585208
 30
0.0
 10
1.93247707550915
 20
14.75545976199519
 30
0.0
 10
1.932477075507613
 20
14.7554597620021
 30
0.0
  0
LINE
  5
A067
330
A05A
100
AcDbEntity
  8
0
100
AcDbLine
 10
2.000000000000003
 20
2.000000000000003
 30
0.0
 11
2.000000000000003
 21
13.99999999999998
 31
0.0
  0
LINE
  5
A068
330
A05A
100
AcDbEntity
  8
0
100
AcDbLine
 10
2.000000000000001
 20
46.99999999999995
 30
0.0
 11
2.000000000000014
 21
16.56249999999994
 31
0.0
  0
LINE
  5
A069
330
A05A
100
AcDbEntity
  8
0
100
AcDbLine
 10
0.0
 20
46.99999999999995
 30
0.0
 11
2.000000000000001
 21
46.99999999999995
 31
0.0
  0
LINE
  5
A06A
330
A05A
100
AcDbEntity
  8
0
100
AcDbLine
 10
0.0
 20
16.56249999999993
 30
0.0
 11
0.0
 21
46.99999999999995
 31
0.0
  0
LINE
  5
A06B
330
A05A
100
AcDbEntity
  8
0
100
AcDbLine
 10
86.00000000000001
 20
13.99999999999998
 30
0.0
 11
46.00000000000001
 21
46.99999999999995
 31
0.0
  0
LINE
  5
A06C
330
A05A
100
AcDbEntity
  8
0
100
AcDbLine
 10
46.00000000000001
 20
46.99999999999995
 30
0.0
 11
46.0
 21
143.9999999999999
 31
0.0
  0
LINE
  5
A06D
330
A05A
100
AcDbEntity
  8
0
100
AcDbLine
 10
2.000000000000001
 20
46.99999999999995
 30
0.0
 11
2.000000000000028
 21
144.0
 31
0.0
  0
LINE
  5
A06E
330
A05A
100
AcDbEntity
  8
0
100
AcDbLine
 10
86.00000000000001
 20
13.99999999999998
 30
0.0
 11
86.0
 21
1.999999999999999
 31
0.0
  0
LINE
  5
A06F
330
A05A
100
AcDbEntity
  8
0
100
AcDbLine
 10
4.000000000000003
 20
144.0
 30
0.0
 11
46.0
 21
143.9999999999999
 31
0.0
  0
LINE
  5
A070
330
A05A
100
AcDbEntity
  8
0
100
AcDbLine
 10
0.0
 20
144.0
 30
0.0
 11
2.000000000000028
 21
144.0
 31
0.0
  0
LINE
  5
A071
330
A05A
100
AcDbEntity
  8
0
100
AcDbLine
 10
0.0
 20
46.99999999999995
 30
0.0
 11
0.0
 21
144.0
 31
0.0
  0
LINE
  5
A072
330
A05A
100
AcDbEntity
  8
0
100
AcDbLine
 10
2.000000000000011
 20
144.0
 30
0.0
 11
4.000000000000003
 21
144.0
 31
0.0
  0
CIRCLE
  5
A073
330
A05A
100
AcDbEntity
  8
0
100
AcDbCircle
 10
38.49999999999999
 20
38.99999999999998
 30
0.0
 40
2.5
  0
CIRCLE
  5
A074
330
A05A
100
AcDbEntity
  8
0
100
AcDbCircle
 10
38.49999999999999
 20
58.99999999999998
 30
0.0
 40
2.5
  0
CIRCLE
  5
A075
330
A05A
100
AcDbEntity
  8
0
100
AcDbCircle
 10
38.49999999999999
 20
78.99999999999998
 30
0.0
 40
2.5
  0
CIRCLE
  5
A076
330
A05A
100
AcDbEntity
  8
0
100
AcDbCircle
 10
38.49999999999999
 20
98.99999999999998
 30
0.0
 40
2.5
  0
CIRCLE
  5
A077
330
A05A
100
AcDbEntity
  8
0
100
AcDbCircle
 10
38.49999999999999
 20
119.0
 30
0.0
 40
2.5
  0
CIRCLE
  5
A078
330
A05A
100
AcDbEntity
  8
0
100
AcDbCircle
 10
38.49999999999999
 20
139.0
 30
0.0
 40
2.5
  0
SPLINE
  5
A079
330
A05A
100
AcDbEntity
  8
0
100
AcDbSpline
210
0.0
220
0.0
230
1.0
 70
     8
 71
     3
 72
     8
 73
     4
 74
     0
 42
0.000000001
 43
0.0000000001
 40
0.0
 40
0.0
 40
0.0
 40
0.0
 40
0.0015188446853201
 40
0.0015188446853201
 40
0.0015188446853201
 40
0.0015188446853201
 10
1.99990095641555
 20
14.00007826946441
 30
0.0
 10
1.999905803165643
 20
14.00293156738448
 30
0.0
 10
1.999907127091342
 20
14.00558560349017
 30
0.0
 10
1.999906099361806
 20
14.00802391097377
 30
0.0
  0
SPLINE
  5
A07A
330
A05A
100
AcDbEntity
  8
0
100
AcDbSpline
210
0.0
220
0.0
230
1.0
 70
     8
 71
     3
 72
    20
 73
    16
 74
     0
 42
0.000000001
 43
0.0000000001
 40
0.0017997288650489
 40
0.0017997288650489
 40
0.0017997288650489
 40
0.0017997288650489
 40
0.0049367400882734
 40
0.0049367400882734
 40
0.013609804134773
 40
0.013609804134773
 40
0.0157024875756002
 40
0.0157024875756002
 40
0.0187307473095049
 40
0.0187307473095049
 40
0.0214824226347385
 40
0.0214824226347385
 40
0.0252523477725444
 40
0.0252523477725444
 40
0.0305682323721171
 40
0.0305682323721171
 40
0.0305682323721171
 40
0.0305682323721171
 10
1.999906247913669
 20
14.00798856113885
 30
0.0
 10
1.999844660328996
 20
14.01309294516419
 30
0.0
 10
1.999769475257626
 20
14.01881278128687
 30
0.0
 10
1.999447688724901
 20
14.04064785340926
 30
0.0
 10
1.999163708910693
 20
14.05695986157206
 30
0.0
 10
1.998493054210225
 20
14.08503904841957
 30
0.0
 10
1.998343946177651
 20
14.09096705450788
 30
0.0
 10
1.997931607348197
 20
14.106343815346
 30
0.0
 10
1.99764033709773
 20
14.11638866767505
 30
0.0
 10
1.997034956679694
 20
14.13555085423977
 30
0.0
 10
1.996720801654196
 20
14.14483610115441
 30
0.0
 10
1.995944774393681
 20
14.16636647707182
 30
0.0
 10
1.995465327983136
 20
14.17862048223334
 30
0.0
 10
1.994261044138179
 20
14.20730809989976
 30
0.0
 10
1.993510226842279
 20
14.22356751633302
 30
0.0
 10
1.99271089685282
 20
14.23950034952556
 30
0.0
  0
ENDBLK
  5
A05C
330
A05A
100
AcDbEntity
  8
0
100
AcDbBlockEnd
  0
BLOCK
  5
A07C
330
A07B
100
AcDbEntity
  8
0
100
AcDbBlockBegin
  2
SAE380_92_2-Right
 70
     0
 10
0.0
 20
0.0
 30
0.0
  3
SAE380_92_2-Right
  1

  0
SPLINE
  5
A07E
330
A07B
100
AcDbEntity
  8
0
100
AcDbSpline
210
0.0
220
0.0
230
1.0
 70
     8
 71
     3
 72
    17
 73
    13
 74
     0
 42
0.000000001
 43
0.0000000001
 40
0.0
 40
0.0
 40
0.0
 40
0.0
 40
0.3704689058660782
 40
0.3704689058660782
 40
0.3704689058660782
 40
0.7029757053290038
 40
0.7029757053290038
 40
0.7029757053290038
 40
0.9335813790867151
 40
0.9335813790867151
 40
0.9335813790867151
 40
1.0
 40
1.0
 40
1.0
 40
1.0
 10
-2.000000000000024
 20
16.56249999999994
 30
0.0
 10
-2.000006377019321
 20
16.27455844103565
 30
0.0
 10
-2.000465619612788
 20
16.04087523495883
 30
0.0
 10
-1.999851137318974
 20
15.78869659271058
 30
0.0
 10
-1.999299621287243
 20
15.56235880322499
 30
0.0
 10
-2.000043886462091
 20
15.3233282980872
 30
0.0
 10
-2.000290307240818
 20
15.01709169610839
 30
0.0
 10
-2.000461209098458
 20
14.80470536884332
 30
0.0
 10
-2.000344409457279
 20
14.55383081506673
 30
0.0
 10
-2.000001688218309
 20
14.26575225716249
 30
0.0
 10
-1.999902978279046
 20
14.18278040213871
 30
0.0
 10
-2.000565701782142
 20
14.09884858616608
 30
0.0
 10
-2.000000000000103
 20
14.00000000000799
 30
0.0
  0
LINE
  5
A07F
330
A07B
100
AcDbEntity
  8
0
100
AcDbLine
 10
-2.001382055220199
 20
16.56249999999994
 30
0.0
 11
-2.00000000000002
 21
16.56249999999994
 31
0.0
  0
SPLINE
  5
A080
330
A07B
100
AcDbEntity
  8
0
100
AcDbSpline
210
0.0
220
0.0
230
1.0
 70
     8
 71
     3
 72
    17
 73
    13
 74
     0
 42
0.000000001
 43
0.0000000001
 40
-0.9642391866715497
 40
-0.9642391866715497
 40
-0.9642391866715497
 40
-0.9642391866715497
 40
-0.7907552673919842
 40
-0.7907552673919842
 40
-0.7907552673919842
 40
-0.3883396848755196
 40
-0.3883396848755196
 40
-0.3883396848755196
 40
-0.1053184206007118
 40
-0.1053184206007118
 40
-0.1053184206007118
 40
0.0
 40
0.0
 40
0.0
 40
0.0
 10
-1.991418259918768
 20
14.23869885963962
 30
0.0
 10
-1.96631261289982
 20
14.6075508710689
 30
0.0
 10
-1.887915385276902
 20
14.89349071918348
 30
0.0
 10
-1.773393535461672
 20
15.10014472426965
 30
0.0
 10
-1.507747145319926
 20
15.5795020744002
 30
0.0
 10
-1.052077259779244
 20
15.69581939513412
 30
0.0
 10
-0.6711423121668718
 20
15.8227234032495
 30
0.0
 10
-0.4032285057344373
 20
15.91197574430884
 30
0.0
 10
-0.1693290542135219
 20
16.01102292129228
 30
0.0
 10
-0.0606817918141773
 20
16.23987558701493
 30
0.0
 10
-0.0202517622621236
 20
16.32503668388845
 30
0.0
 10
-0.0000166268648442
 20
16.43287618703205
 30
0.0
 10
-0.0000000000000006
 20
16.56249999999991
 30
0.0
  0
LINE
  5
A081
330
A07B
100
AcDbEntity
  8
0
100
AcDbLine
 10
-2.000000000000014
 20
16.56249999999994
 30
0.0
 11
0.0
 21
16.56249999999994
 31
0.0
  0
SPLINE
  5
A082
330
A07B
100
AcDbEntity
  8
0
100
AcDbSpline
210
0.0
220
0.0
230
1.0
 70
     8
 71
     3
 72
    12
 73
     8
 74
     0
 42
0.000000001
 43
0.0000000001
 40
0.0084641832933735
 40
0.0084641832933735
 40
0.0084641832933735
 40
0.0084641832933735
 40
0.0101930109112892
 40
0.0101930109112892
 40
0.0141763837943773
 40
0.0141763837943773
 40
0.0170057172657956
 40
0.0170057172657956
 40
0.0170057172657956
 40
0.0170057172657956
 10
-1.999847236395019
 20
14.0258934822708
 30
0.0
 10
-1.999847236383268
 20
14.02589348385398
 30
0.0
 10
-1.999850315353925
 20
14.02548329264171
 30
0.0
 10
-1.99986645617116
 20
14.02291117696377
 30
0.0
 10
-1.999887626994858
 20
14.01912850604326
 30
0.0
 10
-1.999906952061104
 20
14.01000721579636
 30
0.0
 10
-1.999909985036053
 20
14.00539344842065
 30
0.0
 10
-1.999900956415551
 20
14.0000782694644
 30
0.0
  0
SPLINE
  5
A083
330
A07B
100
AcDbEntity
  8
0
100
AcDbSpline
210
0.0
220
0.0
230
1.0
 70
     8
 71
     3
 72
    10
 73
     6
 74
     0
 42
0.000000001
 43
0.0000000001
 40
0.0072545016244473
 40
0.0072545016244473
 40
0.0072545016244473
 40
0.0072545016244473
 40
0.0102247145658029
 40
0.0102247145658029
 40
0.0135879818137602
 40
0.0135879818137602
 40
0.0135879818137602
 40
0.0135879818137602
 10
-1.999750203295506
 20
14.02086783977535
 30
0.0
 10
-1.999750203292864
 20
14.02086783996718
 30
0.0
 10
-1.999769298060135
 20
14.01949532014416
 30
0.0
 10
-1.999826681333571
 20
14.01504976236649
 30
0.0
 10
-1.999866331419413
 20
14.01176999787639
 30
0.0
 10
-1.999905409029111
 20
14.00818965319792
 30
0.0
  0
SPLINE
  5
A084
330
A07B
100
AcDbEntity
  8
0
100
AcDbSpline
210
0.0
220
0.0
230
1.0
 70
     8
 71
     3
 72
    34
 73
    30
 74
     0
 42
0.000000001
 43
0.0000000001
 40
0.1053754949972441
 40
0.1053754949972441
 40
0.1053754949972441
 40
0.1053754949972441
 40
0.1111723090344375
 40
0.1111723090344375
 40
0.1193670926714474
 40
0.1193670926714474
 40
0.1286007944118098
 40
0.1286007944118098
 40
0.1423496857031855
 40
0.1423496857031855
 40
0.1679067029099471
 40
0.1679067029099471
 40
0.1792553314730161
 40
0.1792553314730161
 40
0.1876677341136972
 40
0.1876677341136972
 40
0.1911359867290839
 40
0.1911359867290839
 40
0.1939369337482669
 40
0.1939369337482669
 40
0.1956509774268692
 40
0.1956509774268692
 40
0.1984134340190466
 40
0.1984134340190466
 40
0.2013121439177131
 40
0.2013121439177131
 40
0.2062003270365194
 40
0.2062003270365194
 40
0.2102046203408574
 40
0.2102046203408574
 40
0.2102046203408574
 40
0.2102046203408574
 10
-1.932477075507612
 20
14.75545976200209
 30
0.0
 10
-1.932477075514919
 20
14.75545976196925
 30
0.0
 10
-1.932976092930116
 20
14.75323106184855
 30
0.0
 10
-1.93521699515028
 20
14.74286239878003
 30
0.0
 10
-1.937416247462469
 20
14.73249433721529
 30
0.0
 10
-1.942940759948328
 20
14.70456817395378
 30
0.0
 10
-1.946384864841877
 20
14.68615479804168
 30
0.0
 10
-1.95495041670747
 20
14.63603150881577
 30
0.0
 10
-1.960109682877977
 20
14.60196023544441
 30
0.0
 10
-1.973355848930626
 20
14.50062453147143
 30
0.0
 10
-1.980270397990162
 20
14.42956345889527
 30
0.0
 10
-1.987879887316941
 20
14.3248554733587
 30
0.0
 10
-1.989918486340856
 20
14.29226798011992
 30
0.0
 10
-1.993041130817007
 20
14.23393934296277
 30
0.0
 10
-1.994247356414088
 20
14.20841472978435
 30
0.0
 10
-1.99578504525766
 20
14.17046114626823
 30
0.0
 10
-1.99621663197036
 20
14.15906162081642
 30
0.0
 10
-1.996945058577537
 20
14.13825802607641
 30
0.0
 10
-1.997255688673304
 20
14.1287676900348
 30
0.0
 10
-1.997707333094347
 20
14.11394840513455
 30
0.0
 10
-1.997868937323986
 20
14.10838675617132
 30
0.0
 10
-1.99825476539697
 20
14.09449512922703
 30
0.0
 10
-1.998459929815413
 20
14.08644172781292
 30
0.0
 10
-1.998810749338431
 20
14.07172034504416
 30
0.0
 10
-1.998958007614147
 20
14.06496290973126
 30
0.0
 10
-1.999301382381067
 20
14.04812331086909
 30
0.0
 10
-1.999467571058153
 20
14.03867093139633
 30
0.0
 10
-1.999727304799306
 20
14.02194971052886
 30
0.0
 10
-1.999827814941364
 20
14.01447476752267
 30
0.0
 10
-1.999906392617015
 20
14.00796224337562
 30
0.0
  0
LINE
  5
A085
330
A07B
100
AcDbEntity
  8
0
100
AcDbLine
 10
-1.999999999999999
 20
-2.0
 30
0.0
 11
-86.0
 21
-2.0
 31
0.0
  0
LINE
  5
A086
330
A07B
100
AcDbEntity
  8
0
100
AcDbLine
 10
-2.000000000000003
 20
2.000000000000003
 30
0.0
 11
-2.000000000000003
 21
13.99999999999998
 31
0.0
  0
LINE
  5
A087
330
A07B
100
AcDbEntity
  8
0
100
AcDbLine
 10
-2.000000000000003
 20
2.000000000000004
 30
0.0
 11
-1.999999999999999
 21
-1.999999999999999
 31
0.0
  0
LINE
  5
A088
330
A07B
100
AcDbEntity
  8
0
100
AcDbLine
 10
-86.0
 20
-2.000000000000002
 30
0.0
 11
-86.0
 21
2.0
 31
0.0
  0
LINE
  5
A089
330
A07B
100
AcDbEntity
  8
0
100
AcDbLine
 10
0.0
 20
46.99999999999995
 30
0.0
 11
0.0
 21
16.56249999999993
 31
0.0
  0
LINE
  5
A08A
330
A07B
100
AcDbEntity
  8
0
100
AcDbLine
 10
-2.000000000000001
 20
46.99999999999995
 30
0.0
 11
0.0
 21
46.99999999999995
 31
0.0
  0
LINE
  5
A08B
330
A07B
100
AcDbEntity
  8
0
100
AcDbLine
 10
-2.000000000000014
 20
16.56249999999994
 30
0.0
 11
-2.000000000000001
 21
46.99999999999995
 31
0.0
  0
LINE
  5
A08C
330
A07B
100
AcDbEntity
  8
0
100
AcDbLine
 10
0.0
 20
46.99999999999995
 30
0.0
 11
0.0
 21
144.0
 31
0.0
  0
CIRCLE
  5
A08D
330
A07B
100
AcDbEntity
  8
0
100
AcDbCircle
 10
-38.50000000000002
 20
129.0
 30
0.0
 40
2.5
  0
LINE
  5
A08E
330
A07B
100
AcDbEntity
  8
0
100
AcDbLine
 10
-46.00000000000001
 20
46.99999999999995
 30
0.0
 11
-86.00000000000001
 21
13.99999999999998
 31
0.0
  0
LINE
  5
A08F
330
A07B
100
AcDbEntity
  8
0
100
AcDbLine
 10
-46.0
 20
143.9999999999999
 30
0.0
 11
-46.00000000000001
 21
46.99999999999995
 31
0.0
  0
LINE
  5
A090
330
A07B
100
AcDbEntity
  8
0
100
AcDbLine
 10
-86.00000000000001
 20
13.99999999999998
 30
0.0
 11
-86.0
 21
1.999999999999999
 31
0.0
  0
LINE
  5
A091
330
A07B
100
AcDbEntity
  8
0
100
AcDbLine
 10
-4.000000000000003
 20
144.0
 30
0.0
 11
-46.0
 21
143.9999999999999
 31
0.0
  0
LINE
  5
A092
330
A07B
100
AcDbEntity
  8
0
100
AcDbLine
 10
-2.000000000000011
 20
144.0
 30
0.0
 11
-4.000000000000003
 21
144.0
 31
0.0
  0
LINE
  5
A093
330
A07B
100
AcDbEntity
  8
0
100
AcDbLine
 10
0.0
 20
144.0
 30
0.0
 11
-2.000000000000028
 21
144.0
 31
0.0
  0
LINE
  5
A094
330
A07B
100
AcDbEntity
  8
0
100
AcDbLine
 10
-2.000000000000001
 20
46.99999999999995
 30
0.0
 11
-2.000000000000028
 21
144.0
 31
0.0
  0
CIRCLE
  5
A095
330
A07B
100
AcDbEntity
  8
0
100
AcDbCircle
 10
-38.50000000000002
 20
28.99999999999997
 30
0.0
 40
2.5
  0
CIRCLE
  5
A096
330
A07B
100
AcDbEntity
  8
0
100
AcDbCircle
 10
-38.50000000000002
 20
48.99999999999997
 30
0.0
 40
2.5
  0
CIRCLE
  5
A097
330
A07B
100
AcDbEntity
  8
0
100
AcDbCircle
 10
-38.50000000000002
 20
68.99999999999997
 30
0.0
 40
2.5
  0
CIRCLE
  5
A098
330
A07B
100
AcDbEntity
  8
0
100
AcDbCircle
 10
-38.50000000000002
 20
88.99999999999996
 30
0.0
 40
2.5
  0
CIRCLE
  5
A099
330
A07B
100
AcDbEntity
  8
0
100
AcDbCircle
 10
-38.50000000000002
 20
108.9999999999999
 30
0.0
 40
2.5
  0
SPLINE
  5
A09A
330
A07B
100
AcDbEntity
  8
0
100
AcDbSpline
210
0.0
220
0.0
230
1.0
 70
     8
 71
     3
 72
     8
 73
     4
 74
     0
 42
0.000000001
 43
0.0000000001
 40
0.0154774323784975
 40
0.0154774323784975
 40
0.0154774323784975
 40
0.0154774323784975
 40
0.0170131228494573
 40
0.0170131228494573
 40
0.0170131228494573
 40
0.0170131228494573
 10
-1.999906156234165
 20
14.00802711211843
 30
0.0
 10
-1.999907191337889
 20
14.00557130923492
 30
0.0
 10
-1.999905787317016
 20
14.00288891592611
 30
0.0
 10
-1.999900822933371
 20
14.00000014488268
 30
0.0
  0
SPLINE
  5
A09B
330
A07B
100
AcDbEntity
  8
0
100
AcDbSpline
210
0.0
220
0.0
230
1.0
 70
     8
 71
     3
 72
    22
 73
    18
 74
     0
 42
0.000000001
 43
0.0000000001
 40
0.1814128588966843
 40
0.1814128588966843
 40
0.1814128588966843
 40
0.1814128588966843
 40
0.1876667330328155
 40
0.1876667330328155
 40
0.1911355808639435
 40
0.1911355808639435
 40
0.1939366894173961
 40
0.1939366894173961
 40
0.1956507312087667
 40
0.1956507312087667
 40
0.1984131758729027
 40
0.1984131758729027
 40
0.2013119070494189
 40
0.2013119070494189
 40
0.2062001881061548
 40
0.2062001881061548
 40
0.2102042909387119
 40
0.2102042909387119
 40
0.2102042909387119
 40
0.2102042909387119
 10
-1.992710550864052
 20
14.23951422812662
 30
0.0
 10
-1.993652638692588
 20
14.22073584069874
 30
0.0
 10
-1.994526452953566
 20
14.2015254850418
 30
0.0
 10
-1.995784867028491
 20
14.17046583415014
 30
0.0
 10
-1.996216533566397
 20
14.15906438874559
 30
0.0
 10
-1.996945050397054
 20
14.13825829398523
 30
0.0
 10
-1.997255698987261
 20
14.12876739164758
 30
0.0
 10
-1.997707356696581
 20
14.1139476062023
 30
0.0
 10
-1.997868959595303
 20
14.10838597799213
 30
0.0
 10
-1.998254783298937
 20
14.09449444648245
 30
0.0
 10
-1.99845994479174
 20
14.08644112624393
 30
0.0
 10
-1.998810761841569
 20
14.07171979216851
 30
0.0
 10
-1.998958019732004
 20
14.06496234544207
 30
0.0
 10
-1.999301396583716
 20
14.04812256377626
 30
0.0
 10
-1.99946758672812
 20
14.0386700253836
 30
0.0
 10
-1.999727313972115
 20
14.02194903578769
 30
0.0
 10
-1.999827818612433
 20
14.01447444359305
 30
0.0
 10
-1.999906392609233
 20
14.00796222434948
 30
0.0
  0
ENDBLK
  5
A07D
330
A07B
100
AcDbEntity
  8
0
100
AcDbBlockEnd
  0
BLOCK
  5
A09D
330
A09C
100
AcDbEntity
  8
0
100
AcDbBlockBegin
  2
SAE380_92_2-Top
 70
     0
 10
0.0
 20
0.0
 30
0.0
  3
SAE380_92_2-Top
  1

  0
LINE
  5
A09F
330
A09C
100
AcDbEntity
  8
0
100
AcDbLine
 10
46.00000000000001
 20
-2.000000000000001
 30
0.0
 11
46.00000000000001
 21
-2.069004766166167
 31
0.0
  0
SPLINE
  5
A0A0
330
A09C
100
AcDbEntity
  8
0
100
AcDbSpline
210
0.0
220
0.0
230
1.0
 70
     8
 71
     3
 72
    11
 73
     7
 74
     0
 42
0.000000001
 43
0.0000000001
 40
-1.0
 40
-1.0
 40
-1.0
 40
-1.0
 40
-0.7907552673919842
 40
-0.7907552673919842
 40
-0.7907552673919842
 40
-0.6535033875453045
 40
-0.6535033875453045
 40
-0.6535033875453045
 40
-0.6535033875453045
 10
46.0
 20
-2.000000000000184
 30
0.0
 10
46.00001724877403
 20
-1.997098202772515
 30
0.0
 10
46.13515725660696
 20
-1.911522152464768
 30
0.0
 10
46.36463729126359
 20
-1.773393535461672
 30
0.0
 10
46.51516230449252
 20
-1.682789523078659
 30
0.0
 10
46.70501487260266
 20
-1.57008031690277
 30
0.0
 10
46.92229672437007
 20
-1.44577053674484
 30
0.0
  0
SPLINE
  5
A0A1
330
A09C
100
AcDbEntity
  8
0
100
AcDbSpline
210
0.0
220
0.0
230
1.0
 70
     8
 71
     3
 72
    10
 73
     6
 74
     0
 42
0.000000001
 43
0.0000000001
 40
0.0
 40
0.0
 40
0.0
 40
0.0
 40
0.0670584162405354
 40
0.0670584162405354
 40
0.1015857294880132
 40
0.1015857294880132
 40
0.1015857294880132
 40
0.1015857294880132
 10
50.58980804090802
 20
-2.000030232669514
 30
0.0
 10
50.39154521972122
 20
-2.000297119479897
 30
0.0
 10
50.18834991721726
 20
-2.001422490699176
 30
0.0
 10
49.8745355123685
 20
-2.013511332966646
 30
0.0
 10
49.76446343913394
 20
-2.019552871707276
 30
0.0
 10
49.65274930207859
 20
-2.030278825412307
 30
0.0
  0
SPLINE
  5
A0A2
330
A09C
100
AcDbEntity
  8
0
100
AcDbSpline
210
0.0
220
0.0
230
1.0
 70
     8
 71
     3
 72
    10
 73
     6
 74
     0
 42
0.000000001
 43
0.0000000001
 40
0.0589313022287847
 40
0.0589313022287847
 40
0.0589313022287847
 40
0.0589313022287847
 40
0.0599779860171148
 40
0.0599779860171148
 40
0.0663268531872164
 40
0.0663268531872164
 40
0.0663268531872164
 40
0.0663268531872164
 10
48.00026149195251
 20
-3.967645940213043
 30
0.0
 10
48.0002433683351
 20
-3.969383514612601
 30
0.0
 10
48.0002283457221
 20
-3.970951905378674
 30
0.0
 10
48.00012589227685
 20
-3.981754123402767
 30
0.0
 10
48.00006999202773
 20
-3.989563038438837
 30
0.0
 10
48.00002531920672
 20
-4.000000108971983
 30
0.0
  0
SPLINE
  5
A0A3
330
A09C
100
AcDbEntity
  8
0
100
AcDbSpline
210
0.0
220
0.0
230
1.0
 70
     8
 71
     3
 72
    28
 73
    24
 74
     0
 42
0.000000001
 43
0.0000000001
 40
0.005992403895913
 40
0.005992403895913
 40
0.005992403895913
 40
0.005992403895913
 40
0.0060018381200293
 40
0.0060018381200293
 40
0.0060343737912924
 40
0.0060343737912924
 40
0.0061001218808699
 40
0.0061001218808699
 40
0.0063665725770822
 40
0.0063665725770822
 40
0.0733613257118433
 40
0.0733613257118433
 40
0.1461778585920779
 40
0.1461778585920779
 40
0.1822197537071436
 40
0.1822197537071436
 40
0.2005091093702734
 40
0.2005091093702734
 40
0.2098937814421781
 40
0.2098937814421781
 40
0.2150065234252218
 40
0.2150065234252218
 40
0.2204217729391604
 40
0.2204217729391604
 40
0.2204217729391604
 40
0.2204217729391604
 10
45.99996683550283
 20
-3.998262424359531
 30
0.0
 10
45.99996641661326
 20
-3.998238329186067
 30
0.0
 10
45.99996598713018
 20
-3.998213623516986
 30
0.0
 10
45.99996403006858
 20
-3.998101039460169
 30
0.0
 10
45.99996237806903
 20
-3.998005989275401
 30
0.0
 10
45.99995717558639
 20
-3.997706594231828
 30
0.0
 10
45.99995334692819
 20
-3.997486175130022
 30
0.0
 10
45.99993419802301
 20
-3.996383250841711
 30
0.0
 10
45.99991873436619
 20
-3.995490976963696
 30
0.0
 10
45.99618179043163
 20
-3.779497655195315
 30
0.0
 10
45.99444382162872
 20
-3.585309424062971
 30
0.0
 10
45.99316940860219
 20
-3.164115980735547
 30
0.0
 10
45.99375520102484
 20
-2.938043836145379
 30
0.0
 10
45.9957238710256
 20
-2.597037962907259
 30
0.0
 10
45.99651061032743
 20
-2.485242954351742
 30
0.0
 10
45.99791998810403
 20
-2.31962947890567
 30
0.0
 10
45.99852173295853
 20
-2.262940700224239
 30
0.0
 10
45.99923838980372
 20
-2.180972631519379
 30
0.0
 10
45.99942028539662
 20
-2.153992620592632
 30
0.0
 10
45.99955633688746
 20
-2.117588805719738
 30
0.0
 10
45.99957946484774
 20
-2.105610769215283
 30
0.0
 10
45.99959432352253
 20
-2.084188218709982
 30
0.0
 10
45.99958391143647
 20
-2.074632500459157
 30
0.0
 10
45.9995722882979
 20
-2.069004766166167
 30
0.0
  0
SPLINE
  5
A0A4
330
A09C
100
AcDbEntity
  8
0
100
AcDbSpline
210
0.0
220
0.0
230
1.0
 70
     8
 71
     3
 72
    12
 73
     8
 74
     0
 42
0.000000001
 43
0.0000000001
 40
0.0
 40
0.0
 40
0.0
 40
0.0
 40
0.0073680638599725
 40
0.0073680638599725
 40
0.0094714794533395
 40
0.0094714794533395
 40
0.0106892344295489
 40
0.0106892344295489
 40
0.0106892344295489
 40
0.0106892344295489
 10
45.99996053853822
 20
-3.999985503002871
 30
0.0
 10
46.00000120689111
 20
-3.988738678366887
 30
0.0
 10
46.00005705426693
 20
-3.976817397492837
 30
0.0
 10
46.00011475911472
 20
-3.966829073058943
 30
0.0
 10
46.00012596496195
 20
-3.965004429923512
 30
0.0
 10
46.00013624741436
 20
-3.963340749443995
 30
0.0
 10
46.00013843227579
 20
-3.962989239765727
 30
0.0
 10
46.00013843227575
 20
-3.962989239773079
 30
0.0
  0
LINE
  5
A0A5
330
A09C
100
AcDbEntity
  8
0
100
AcDbLine
 10
-46.00000000000001
 20
-2.000000000000001
 30
0.0
 11
-46.00000000000001
 21
-2.069004705611477
 31
0.0
  0
SPLINE
  5
A0A6
330
A09C
100
AcDbEntity
  8
0
100
AcDbSpline
210
0.0
220
0.0
230
1.0
 70
     8
 71
     3
 72
    11
 73
     7
 74
     0
 42
0.000000001
 43
0.0000000001
 40
-1.0
 40
-1.0
 40
-1.0
 40
-1.0
 40
-0.7907552673919842
 40
-0.7907552673919842
 40
-0.7907552673919842
 40
-0.6535033875453045
 40
-0.6535033875453045
 40
-0.6535033875453045
 40
-0.6535033875453045
 10
-46.0
 20
-2.000000000000184
 30
0.0
 10
-46.00001724877403
 20
-1.997098202772515
 30
0.0
 10
-46.13515725660696
 20
-1.911522152464768
 30
0.0
 10
-46.36463729126359
 20
-1.773393535461672
 30
0.0
 10
-46.51516230449252
 20
-1.682789523078659
 30
0.0
 10
-46.70501487260266
 20
-1.57008031690277
 30
0.0
 10
-46.92229672437007
 20
-1.44577053674484
 30
0.0
  0
SPLINE
  5
A0A7
330
A09C
100
AcDbEntity
  8
0
100
AcDbSpline
210
0.0
220
0.0
230
1.0
 70
     8
 71
     3
 72
    40
 73
    36
 74
     0
 42
0.000000001
 43
0.0000000001
 40
0.0
 40
0.0
 40
0.0
 40
0.0
 40
0.0038040499000614
 40
0.0038040499000614
 40
0.0084789015835781
 40
0.0084789015835781
 40
0.0158054028626003
 40
0.0158054028626003
 40
0.0259999622070982
 40
0.0259999622070982
 40
0.049520275484593
 40
0.049520275484593
 40
0.1201091808038913
 40
0.1201091808038913
 40
0.1773320802768596
 40
0.1773320802768596
 40
0.1996781201743271
 40
0.1996781201743271
 40
0.2080566074232477
 40
0.2080566074232477
 40
0.2111984982082337
 40
0.2111984982082337
 40
0.2135549664892554
 40
0.2135549664892554
 40
0.2139968618207272
 40
0.2139968618207272
 40
0.2143291845997531
 40
0.2143291845997531
 40
0.2143839361421342
 40
0.2143839361421342
 40
0.2144312380758132
 40
0.2144312380758132
 40
0.214478813728908
 40
0.214478813728908
 40
0.2144971871699787
 40
0.2144971871699787
 40
0.2144971871699787
 40
0.2144971871699787
 10
-45.99957228817284
 20
-2.069004705611477
 30
0.0
 10
-45.999580453078
 20
-2.072957999598431
 30
0.0
 10
-45.999588254759
 20
-2.078880967566326
 30
0.0
 10
-45.99959053795571
 20
-2.094285239366817
 30
0.0
 10
-45.99958182819032
 20
-2.104402657290582
 30
0.0
 10
-45.99951287463301
 20
-2.13256242766582
 30
0.0
 10
-45.99942216875362
 20
-2.152170324408856
 30
0.0
 10
-45.99908018801506
 20
-2.20162899059742
 30
0.0
 10
-45.99878019993109
 20
-2.232656059319694
 30
0.0
 10
-45.99777929260516
 20
-2.335147308447653
 30
0.0
 10
-45.99716326959125
 20
-2.406780522402451
 30
0.0
 10
-45.99498748805406
 20
-2.695959306543097
 30
0.0
 10
-45.99378543136958
 20
-2.921293597246954
 30
0.0
 10
-45.99344333186667
 20
-3.312931135783509
 30
0.0
 10
-45.99387949282397
 20
-3.483492597961602
 30
0.0
 10
-45.99604595805717
 20
-3.724030480217661
 30
0.0
 10
-45.99683104544793
 20
-3.792146098786457
 30
0.0
 10
-45.99816315485647
 20
-3.886554711960625
 30
0.0
 10
-45.99855176747277
 20
-3.912363626692288
 30
0.0
 10
-45.99911998609321
 20
-3.947920640360647
 30
0.0
 10
-45.99927840480492
 20
-3.957624510516293
 30
0.0
 10
-45.99956182434163
 20
-3.974629656912559
 30
0.0
 10
-45.99968491534496
 20
-3.981904268850989
 30
0.0
 10
-45.99983507509901
 20
-3.990646163698652
 30
0.0
 10
-45.99985892045783
 20
-3.992030549969522
 30
0.0
 10
-45.99990137744447
 20
-3.994488485194444
 30
0.0
 10
-45.9999199516607
 20
-3.99556157656257
 30
0.0
 10
-45.99994226765661
 20
-3.996847944498273
 30
0.0
 10
-45.99994545036554
 20
-3.997031339697876
 30
0.0
 10
-45.99995134144951
 20
-3.997370674477353
 30
0.0
 10
-45.99995407860882
 20
-3.997528288197712
 30
0.0
 10
-45.99995936461714
 20
-3.997832581417111
 30
0.0
 10
-45.99996195052608
 20
-3.997981392861433
 30
0.0
 10
-45.99996515791744
 20
-3.998165922736197
 30
0.0
 10
-45.9999660167439
 20
-3.998215328047216
 30
0.0
 10
-45.99996683550315
 20
-3.998262424266733
 30
0.0
  0
SPLINE
  5
A0A8
330
A09C
100
AcDbEntity
  8
0
100
AcDbSpline
210
0.0
220
0.0
230
1.0
 70
     8
 71
     3
 72
    14
 73
    10
 74
     0
 42
0.000000001
 43
0.0000000001
 40
0.0077865624736635
 40
0.0077865624736635
 40
0.0077865624736635
 40
0.0077865624736635
 40
0.0083990091016337
 40
0.0083990091016337
 40
0.0105262714519046
 40
0.0105262714519046
 40
0.0138670534392813
 40
0.0138670534392813
 40
0.0184825667585378
 40
0.0184825667585378
 40
0.0184825667585378
 40
0.0184825667585378
 10
-46.00013843227572
 20
-3.962989239776937
 30
0.0
 10
-46.00013843227569
 20
-3.962989239782217
 30
0.0
 10
-46.00013788267009
 20
-3.963078229483259
 30
0.0
 10
-46.00013329603594
 20
-3.963817995175762
 30
0.0
 10
-46.00012391975905
 20
-3.965318220453632
 30
0.0
 10
-46.00009360823398
 20
-3.970431384881882
 30
0.0
 10
-46.00006955419989
 20
-3.974747388444315
 30
0.0
 10
-46.00001537908671
 20
-3.98582417715213
 30
0.0
 10
-45.99998596655532
 20
-3.992952356672372
 30
0.0
 10
-45.99996049456939
 20
-3.999997663461099
 30
0.0
  0
SPLINE
  5
A0A9
330
A09C
100
AcDbEntity
  8
0
100
AcDbSpline
210
0.0
220
0.0
230
1.0
 70
     8
 71
     3
 72
    10
 73
     6
 74
     0
 42
0.000000001
 43
0.0000000001
 40
0.0
 40
0.0
 40
0.0
 40
0.0
 40
0.0049906877505649
 40
0.0049906877505649
 40
0.0073950152996568
 40
0.0073950152996568
 40
0.0073950152996568
 40
0.0073950152996568
 10
-48.00002531920675
 20
-4.000000108971986
 30
0.0
 10
-48.00006043540854
 20
-3.991795785479805
 30
0.0
 10
-48.00010543803868
 20
-3.985044489261584
 30
0.0
 10
-48.00019029816624
 20
-3.974913320070836
 30
0.0
 10
-48.00022128444348
 20
-3.971546284557773
 30
0.0
 10
-48.00026242521143
 20
-3.967601975678616
 30
0.0
  0
SPLINE
  5
A0AA
330
A09C
100
AcDbEntity
  8
0
100
AcDbSpline
210
0.0
220
0.0
230
1.0
 70
     8
 71
     3
 72
    12
 73
     8
 74
     0
 42
0.000000001
 43
0.0000000001
 40
0.1006407255260037
 40
0.1006407255260037
 40
0.1006407255260037
 40
0.1006407255260037
 40
0.1211256635470418
 40
0.1211256635470418
 40
0.1784064189512051
 40
0.1784064189512051
 40
0.2023979344810753
 40
0.2023979344810753
 40
0.2023979344810753
 40
0.2023979344810753
 10
-49.65225355623953
 20
-2.03046390973475
 30
0.0
 10
-49.71837693380719
 20
-2.024115238887742
 30
0.0
 10
-49.78376124664295
 20
-2.01939081422444
 30
0.0
 10
-50.0283012655699
 20
-2.005407957726364
 30
0.0
 10
-50.20098786194876
 20
-2.002606029119489
 30
0.0
 10
-50.44720089234944
 20
-2.000365144870585
 30
0.0
 10
-50.51887547464307
 20
-2.000125716866954
 30
0.0
 10
-50.58980804090648
 20
-2.000030232669517
 30
0.0
  0
LINE
  5
A0AB
330
A09C
100
AcDbEntity
  8
0
100
AcDbLine
 10
-46.00000000000001
 20
-2.000000000000001
 30
0.0
 11
-44.00000000000001
 21
-1.999999999999999
 31
0.0
  0
LINE
  5
A0AC
330
A09C
100
AcDbEntity
  8
0
100
AcDbLine
 10
-46.0
 20
-86.0
 30
0.0
 11
-43.99999999999999
 21
-86.0
 31
0.0
  0
LINE
  5
A0AD
330
A09C
100
AcDbEntity
  8
0
100
AcDbLine
 10
44.00000000000002
 20
-1.999999999999999
 30
0.0
 11
-44.00000000000002
 21
-1.999999999999999
 31
0.0
  0
LINE
  5
A0AE
330
A09C
100
AcDbEntity
  8
0
100
AcDbLine
 10
-43.99999999999999
 20
-86.0
 30
0.0
 11
44.00000000000001
 21
-86.0
 31
0.0
  0
CIRCLE
  5
A0AF
330
A09C
100
AcDbEntity
  8
0
100
AcDbCircle
 10
0.0
 20
-47.99999999999998
 30
0.0
 40
2.5
  0
CIRCLE
  5
A0B0
330
A09C
100
AcDbEntity
  8
0
100
AcDbCircle
 10
0.0
 20
-67.99999999999998
 30
0.0
 40
2.5
  0
LINE
  5
A0B1
330
A09C
100
AcDbEntity
  8
0
100
AcDbLine
 10
46.00000000000001
 20
-2.000000000000001
 30
0.0
 11
44.00000000000001
 21
-1.999999999999999
 31
0.0
  0
LINE
  5
A0B2
330
A09C
100
AcDbEntity
  8
0
100
AcDbLine
 10
50.0
 20
0.0
 30
0.0
 11
87.5
 21
0.0
 31
0.0
  0
ARC
  5
A0B3
330
A09C
100
AcDbEntity
  8
0
100
AcDbCircle
 10
50.0
 20
-4.000000000000004
 30
0.0
 40
3.999999999999994
100
AcDbArc
 50
90.0
 51
180.0
  0
LINE
  5
A0B4
330
A09C
100
AcDbEntity
  8
0
100
AcDbLine
 10
45.99999999999998
 20
-86.00000000000001
 30
0.0
 11
46.0
 21
-46.00000000000001
 31
0.0
  0
LINE
  5
A0B5
330
A09C
100
AcDbEntity
  8
0
100
AcDbLine
 10
47.99999999999998
 20
-86.00000000000001
 30
0.0
 11
45.99999999999998
 21
-86.00000000000001
 31
0.0
  0
LINE
  5
A0B6
330
A09C
100
AcDbEntity
  8
0
100
AcDbLine
 10
48.0
 20
-46.00000000000001
 30
0.0
 11
47.99999999999998
 21
-86.00000000000001
 31
0.0
  0
LINE
  5
A0B7
330
A09C
100
AcDbEntity
  8
0
100
AcDbLine
 10
46.0
 20
-46.0
 30
0.0
 11
48.0
 21
-46.0
 31
0.0
  0
LINE
  5
A0B8
330
A09C
100
AcDbEntity
  8
0
100
AcDbLine
 10
48.0
 20
-4.000000000000003
 30
0.0
 11
48.0
 21
-46.0
 31
0.0
  0
LINE
  5
A0B9
330
A09C
100
AcDbEntity
  8
0
100
AcDbLine
 10
46.0
 20
-46.0
 30
0.0
 11
46.0
 21
-4.000000000000003
 31
0.0
  0
LINE
  5
A0BA
330
A09C
100
AcDbEntity
  8
0
100
AcDbLine
 10
46.0
 20
-86.0
 30
0.0
 11
43.99999999999999
 21
-86.0
 31
0.0
  0
ARC
  5
A0BB
330
A09C
100
AcDbEntity
  8
0
100
AcDbCircle
 10
50.0
 20
-4.000000000000004
 30
0.0
 40
1.999999999999992
100
AcDbArc
 50
90.0
 51
180.0
  0
LINE
  5
A0BC
330
A09C
100
AcDbEntity
  8
0
100
AcDbLine
 10
87.5
 20
0.0
 30
0.0
 11
87.5
 21
-2.000000000000028
 31
0.0
  0
LINE
  5
A0BD
330
A09C
100
AcDbEntity
  8
0
100
AcDbLine
 10
87.5
 20
-2.000000000000028
 30
0.0
 11
50.0
 21
-2.00000000000001
 31
0.0
  0
LINE
  5
A0BE
330
A09C
100
AcDbEntity
  8
0
100
AcDbLine
 10
-87.5
 20
-2.000000000000028
 30
0.0
 11
-50.0
 21
-2.00000000000001
 31
0.0
  0
LINE
  5
A0BF
330
A09C
100
AcDbEntity
  8
0
100
AcDbLine
 10
-46.0
 20
-46.0
 30
0.0
 11
-46.0
 21
-4.000000000000003
 31
0.0
  0
LINE
  5
A0C0
330
A09C
100
AcDbEntity
  8
0
100
AcDbLine
 10
-48.0
 20
-4.000000000000003
 30
0.0
 11
-48.0
 21
-46.0
 31
0.0
  0
LINE
  5
A0C1
330
A09C
100
AcDbEntity
  8
0
100
AcDbLine
 10
-50.0
 20
0.0
 30
0.0
 11
-87.5
 21
0.0
 31
0.0
  0
LINE
  5
A0C2
330
A09C
100
AcDbEntity
  8
0
100
AcDbLine
 10
-87.5
 20
0.0
 30
0.0
 11
-87.5
 21
-2.000000000000028
 31
0.0
  0
ARC
  5
A0C3
330
A09C
100
AcDbEntity
  8
0
100
AcDbCircle
 10
-50.0
 20
-4.000000000000004
 30
0.0
 40
1.999999999999992
100
AcDbArc
 50
0.0
 51
90.0
  0
ARC
  5
A0C4
330
A09C
100
AcDbEntity
  8
0
100
AcDbCircle
 10
-50.0
 20
-4.000000000000004
 30
0.0
 40
3.999999999999994
100
AcDbArc
 50
0.0
 51
90.0
  0
LINE
  5
A0C5
330
A09C
100
AcDbEntity
  8
0
100
AcDbLine
 10
-46.0
 20
-46.00000000000001
 30
0.0
 11
-45.99999999999998
 21
-86.00000000000001
 31
0.0
  0
LINE
  5
A0C6
330
A09C
100
AcDbEntity
  8
0
100
AcDbLine
 10
-47.99999999999998
 20
-86.00000000000001
 30
0.0
 11
-48.0
 21
-46.00000000000001
 31
0.0
  0
LINE
  5
A0C7
330
A09C
100
AcDbEntity
  8
0
100
AcDbLine
 10
-45.99999999999998
 20
-86.00000000000001
 30
0.0
 11
-47.99999999999998
 21
-86.00000000000001
 31
0.0
  0
LINE
  5
A0C8
330
A09C
100
AcDbEntity
  8
0
100
AcDbLine
 10
-48.0
 20
-46.0
 30
0.0
 11
-46.0
 21
-46.0
 31
0.0
  0
ENDBLK
  5
A09E
330
A09C
100
AcDbEntity
  8
0
100
AcDbBlockEnd
  0
BLOCK
  5
A0CA
330
A0C9
100
AcDbEntity
  8
0
100
AcDbBlockBegin
  2
SAE380_92_2-Bottom
 70
     0
 10
0.0
 20
0.0
 30
0.0
  3
SAE380_92_2-Bottom
  1

  0
SPLINE
  5
A0CC
330
A0C9
100
AcDbEntity
  8
0
100
AcDbSpline
210
0.0
220
0.0
230
1.0
 70
     8
 71
     3
 72
    17
 73
    13
 74
     0
 42
0.000000001
 43
0.0000000001
 40
0.0
 40
0.0
 40
0.0
 40
0.0
 40
0.3704689058660782
 40
0.3704689058660782
 40
0.3704689058660782
 40
0.7029757053290038
 40
0.7029757053290038
 40
0.7029757053290038
 40
0.9335813790867151
 40
0.9335813790867151
 40
0.9335813790867151
 40
1.0
 40
1.0
 40
1.0
 40
1.0
 10
50.60606060606064
 20
2.000000000000024
 30
0.0
 10
50.25310981611774
 20
2.000006377019321
 30
0.0
 10
49.80994835339758
 20
2.000465619612788
 30
0.0
 10
49.38299606377646
 20
1.999851137318974
 30
0.0
 10
48.99979375692318
 20
1.999299621287243
 30
0.0
 10
48.63742190751519
 20
2.000043886462091
 30
0.0
 10
48.37998709144766
 20
2.000290307240818
 30
0.0
 10
48.20144659451997
 20
2.000461209098458
 30
0.0
 10
48.07197149374755
 20
2.000344409457279
 30
0.0
 10
48.02188707330174
 20
2.000001688218309
 30
0.0
 10
48.00746185088181
 20
1.999902978279046
 30
0.0
 10
47.99999784581294
 20
2.000565701782142
 30
0.0
 10
48.00000000001909
 20
2.000000000000103
 30
0.0
  0
ARC
  5
A0CD
330
A0C9
100
AcDbEntity
  8
0
100
AcDbCircle
 10
50.0
 20
4.000000000000004
 30
0.0
 40
1.999999999999983
100
AcDbArc
 50
180.176699979582
 51
259.9841446490857
  0
ARC
  5
A0CE
330
A0C9
100
AcDbEntity
  8
0
100
AcDbCircle
 10
50.0
 20
4.000000000000004
 30
0.0
 40
3.999999999999985
100
AcDbArc
 50
219.6735598722848
 51
270.0
  0
LINE
  5
A0CF
330
A0C9
100
AcDbEntity
  8
0
100
AcDbLine
 10
50.60606060606066
 20
0.0
 30
0.0
 11
50.0
 21
0.0
 31
0.0
  0
SPLINE
  5
A0D0
330
A0C9
100
AcDbEntity
  8
0
100
AcDbSpline
210
0.0
220
0.0
230
1.0
 70
     8
 71
     3
 72
    17
 73
    13
 74
     0
 42
0.000000001
 43
0.0000000001
 40
-1.0
 40
-1.0
 40
-1.0
 40
-1.0
 40
-0.7907552673919842
 40
-0.7907552673919842
 40
-0.7907552673919842
 40
-0.3883396848755196
 40
-0.3883396848755196
 40
-0.3883396848755196
 40
-0.1053184206007118
 40
-0.1053184206007118
 40
-0.1053184206007118
 40
0.0
 40
0.0
 40
0.0
 40
0.0
 10
46.0
 20
2.000000000000184
 30
0.0
 10
46.00001724877403
 20
1.997098202772515
 30
0.0
 10
46.13515725660696
 20
1.911522152464768
 30
0.0
 10
46.36463729126359
 20
1.773393535461672
 30
0.0
 10
46.80596903075947
 20
1.507747145319926
 30
0.0
 10
47.58537332976541
 20
1.052077259779244
 30
0.0
 10
48.40296616531944
 20
0.6711423121668718
 30
0.0
 10
48.97798405238415
 20
0.4032285057344373
 30
0.0
 10
49.57892350318866
 20
0.1693290542135219
 30
0.0
 10
50.08259362675619
 20
0.0606817918141773
 30
0.0
 10
50.27002032790467
 20
0.0202517622621236
 30
0.0
 10
50.44467332044401
 20
0.0000166268648442
 30
0.0
 10
50.60606060606069
 20
0.0000000000000006
 30
0.0
  0
LINE
  5
A0D1
330
A0C9
100
AcDbEntity
  8
0
100
AcDbLine
 10
50.60606060606068
 20
2.000000000000014
 30
0.0
 11
50.60606060606068
 21
0.0
 31
0.0
  0
SPLINE
  5
A0D2
330
A0C9
100
AcDbEntity
  8
0
100
AcDbSpline
210
0.0
220
0.0
230
1.0
 70
     8
 71
     3
 72
    28
 73
    24
 74
     0
 42
0.000000001
 43
0.0000000001
 40
0.069082259011921
 40
0.069082259011921
 40
0.069082259011921
 40
0.069082259011921
 40
0.0695373376946328
 40
0.0695373376946328
 40
0.0705592775771018
 40
0.0705592775771018
 40
0.0715813611852096
 40
0.0715813611852096
 40
0.0725991042098318
 40
0.0725991042098318
 40
0.0746451822655527
 40
0.0746451822655527
 40
0.0787297326832837
 40
0.0787297326832837
 40
0.0838653754388972
 40
0.0838653754388972
 40
0.0955614324967428
 40
0.0955614324967428
 40
0.1211256635478312
 40
0.1211256635478312
 40
0.1784064189534837
 40
0.1784064189534837
 40
0.1798465075906925
 40
0.1798465075906925
 40
0.1798465075906925
 40
0.1798465075906925
 10
49.36371670695514
 20
2.070841470802919
 30
0.0
 10
49.3637167069631
 20
2.070841470801305
 30
0.0
 10
49.36380214744595
 20
2.070824147944788
 30
0.0
 10
49.36438361945987
 20
2.070706910031304
 30
0.0
 10
49.36528572235113
 20
2.070525432049235
 30
0.0
 10
49.36805655518965
 20
2.069975659406723
 30
0.0
 10
49.36994902274868
 20
2.069602926366532
 30
0.0
 10
49.37436619550481
 20
2.068744968898641
 30
0.0
 10
49.37691522268352
 20
2.068255027857869
 30
0.0
 10
49.3850941228319
 20
2.066704419210747
 30
0.0
 10
49.39131852210817
 20
2.065552216829727
 30
0.0
 10
49.41032146366758
 20
2.062130588047997
 30
0.0
 10
49.42381689207582
 20
2.0598230293403
 30
0.0
 10
49.45405151580756
 20
2.054909058545566
 30
0.0
 10
49.47106069529538
 20
2.052318623663028
 30
0.0
 10
49.52650619139088
 20
2.044365323487741
 30
0.0
 10
49.56492454356919
 20
2.039625143306166
 30
0.0
 10
49.68595330092529
 20
2.026494701270712
 30
0.0
 10
49.76778903115292
 20
2.020304109308454
 30
0.0
 10
50.02830126558184
 20
2.005407957725897
 30
0.0
 10
50.20098786196519
 20
2.002606029119168
 30
0.0
 10
50.3788817093168
 20
2.000986945353312
 30
0.0
 10
50.38323776591579
 20
2.000948997469827
 30
0.0
 10
50.38759632901058
 20
2.00091203359559
 30
0.0
  0
SPLINE
  5
A0D3
330
A0C9
100
AcDbEntity
  8
0
100
AcDbSpline
210
0.0
220
0.0
230
1.0
 70
     8
 71
     3
 72
    30
 73
    26
 74
     0
 42
0.000000001
 43
0.0000000001
 40
0.0
 40
0.0
 40
0.0
 40
0.0
 40
0.004990687781168
 40
0.004990687781168
 40
0.0087372355209619
 40
0.0087372355209619
 40
0.0097952253162303
 40
0.0097952253162303
 40
0.0104899688814938
 40
0.0104899688814938
 40
0.0114835377054755
 40
0.0114835377054755
 40
0.0123917508446718
 40
0.0123917508446718
 40
0.013525937697469
 40
0.013525937697469
 40
0.0151743813746737
 40
0.0151743813746737
 40
0.0177233275381786
 40
0.0177233275381786
 40
0.0214777529345096
 40
0.0214777529345096
 40
0.0261198061863405
 40
0.0261198061863405
 40
0.0306018019722963
 40
0.0306018019722963
 40
0.0306018019722963
 40
0.0306018019722963
 10
48.00002531920672
 20
4.000000108971985
 30
0.0
 10
48.00006043540872
 20
3.991795785431388
 30
0.0
 10
48.00010543803915
 20
3.985044489185259
 30
0.0
 10
48.00020570056644
 20
3.973074478604978
 30
0.0
 10
48.00025216704824
 20
3.968020207309646
 30
0.0
 10
48.00037082766511
 20
3.958018887586274
 30
0.0
 10
48.00040161076974
 20
3.955539561930998
 30
0.0
 10
48.00046347753905
 20
3.950898298937071
 30
0.0
 10
48.00049113794893
 20
3.948899178226636
 30
0.0
 10
48.00056545828354
 20
3.943776693938084
 30
0.0
 10
48.00061636412687
 20
3.9404678598533
 30
0.0
 10
48.00072033177236
 20
3.934149189463718
 30
0.0
 10
48.00077372345654
 20
3.93107968326658
 30
0.0
 10
48.00089659629399
 20
3.924378860350381
 30
0.0
 10
48.00096786688074
 20
3.920734150795409
 30
0.0
 10
48.00114460638226
 20
3.912180966904447
 30
0.0
 10
48.00125249029505
 20
3.907368438550217
 30
0.0
 10
48.00152755707362
 20
3.895853857879512
 30
0.0
 10
48.00169749324751
 20
3.889446306777438
 30
0.0
 10
48.00210476726499
 20
3.8751400556191
 30
0.0
 10
48.0023398550206
 20
3.867834575702753
 30
0.0
 10
48.00278976724007
 20
3.854669013280603
 30
0.0
 10
48.002988512163
 20
3.849467629304103
 30
0.0
 10
48.00322997974503
 20
3.843272573739504
 30
0.0
 10
48.00328099785239
 20
3.842057251311032
 30
0.0
 10
48.00328099785184
 20
3.842057251324378
 30
0.0
  0
SPLINE
  5
A0D4
330
A0C9
100
AcDbEntity
  8
0
100
AcDbSpline
210
0.0
220
0.0
230
1.0
 70
     8
 71
     3
 72
     8
 73
     4
 74
     0
 42
0.000000001
 43
0.0000000001
 40
0.0
 40
0.0
 40
0.0
 40
0.0
 40
0.0004151367463123
 40
0.0004151367463123
 40
0.0004151367463123
 40
0.0004151367463123
 10
48.00002109558377
 20
4.000000267145736
 30
0.0
 10
48.00001411393825
 20
3.999222903662895
 30
0.0
 10
48.00000714111355
 20
3.998428973620759
 30
0.0
 10
48.00000008478676
 20
3.997615301497495
 30
0.0
  0
CIRCLE
  5
A0D5
330
A0C9
100
AcDbEntity
  8
0
100
AcDbCircle
 10
0.0
 20
67.99999999999998
 30
0.0
 40
2.5
  0
CIRCLE
  5
A0D6
330
A0C9
100
AcDbEntity
  8
0
100
AcDbCircle
 10
0.0
 20
47.99999999999998
 30
0.0
 40
2.5
  0
LINE
  5
A0D7
330
A0C9
100
AcDbEntity
  8
0
100
AcDbLine
 10
44.00000000000002
 20
1.999999999999999
 30
0.0
 11
-44.00000000000002
 21
1.999999999999999
 31
0.0
  0
LINE
  5
A0D8
330
A0C9
100
AcDbEntity
  8
0
100
AcDbLine
 10
44.0
 20
86.0
 30
0.0
 11
-44.0
 21
86.0
 31
0.0
  0
SPLINE
  5
A0D9
330
A0C9
100
AcDbEntity
  8
0
100
AcDbSpline
210
0.0
220
0.0
230
1.0
 70
     8
 71
     3
 72
    17
 73
    13
 74
     0
 42
0.000000001
 43
0.0000000001
 40
-1.0
 40
-1.0
 40
-1.0
 40
-1.0
 40
-0.7907552673919842
 40
-0.7907552673919842
 40
-0.7907552673919842
 40
-0.3883396848755196
 40
-0.3883396848755196
 40
-0.3883396848755196
 40
-0.1053184206007118
 40
-0.1053184206007118
 40
-0.1053184206007118
 40
0.0
 40
0.0
 40
0.0
 40
0.0
 10
-46.0
 20
2.000000000000184
 30
0.0
 10
-46.00001724877403
 20
1.997098202772515
 30
0.0
 10
-46.13515725660696
 20
1.911522152464768
 30
0.0
 10
-46.36463729126359
 20
1.773393535461672
 30
0.0
 10
-46.80596903075947
 20
1.507747145319926
 30
0.0
 10
-47.58537332976541
 20
1.052077259779244
 30
0.0
 10
-48.40296616531944
 20
0.6711423121668718
 30
0.0
 10
-48.97798405238415
 20
0.4032285057344373
 30
0.0
 10
-49.57892350318866
 20
0.1693290542135219
 30
0.0
 10
-50.08259362675619
 20
0.0606817918141773
 30
0.0
 10
-50.27002032790467
 20
0.0202517622621236
 30
0.0
 10
-50.44467332044401
 20
0.0000166268648442
 30
0.0
 10
-50.60606060606069
 20
0.0000000000000006
 30
0.0
  0
LINE
  5
A0DA
330
A0C9
100
AcDbEntity
  8
0
100
AcDbLine
 10
-50.0
 20
0.0
 30
0.0
 11
-50.60606060606066
 21
0.0
 31
0.0
  0
ARC
  5
A0DB
330
A0C9
100
AcDbEntity
  8
0
100
AcDbCircle
 10
-50.0
 20
4.000000000000004
 30
0.0
 40
3.999999999999985
100
AcDbArc
 50
270.0
 51
320.3264401277153
  0
ARC
  5
A0DC
330
A0C9
100
AcDbEntity
  8
0
100
AcDbCircle
 10
-50.0
 20
4.000000000000004
 30
0.0
 40
1.999999999999984
100
AcDbArc
 50
280.0158553509159
 51
359.8269243558988
  0
SPLINE
  5
A0DD
330
A0C9
100
AcDbEntity
  8
0
100
AcDbSpline
210
0.0
220
0.0
230
1.0
 70
     8
 71
     3
 72
    17
 73
    13
 74
     0
 42
0.000000001
 43
0.0000000001
 40
0.0
 40
0.0
 40
0.0
 40
0.0
 40
0.3704689058660782
 40
0.3704689058660782
 40
0.3704689058660782
 40
0.7029757053290038
 40
0.7029757053290038
 40
0.7029757053290038
 40
0.9335813790867151
 40
0.9335813790867151
 40
0.9335813790867151
 40
1.0
 40
1.0
 40
1.0
 40
1.0
 10
-50.60606060606064
 20
2.000000000000024
 30
0.0
 10
-50.25310981611774
 20
2.000006377019321
 30
0.0
 10
-49.80994835339758
 20
2.000465619612788
 30
0.0
 10
-49.38299606377646
 20
1.999851137318974
 30
0.0
 10
-48.99979375692318
 20
1.999299621287243
 30
0.0
 10
-48.63742190751519
 20
2.000043886462091
 30
0.0
 10
-48.37998709144766
 20
2.000290307240818
 30
0.0
 10
-48.20144659451997
 20
2.000461209098458
 30
0.0
 10
-48.07197149374755
 20
2.000344409457279
 30
0.0
 10
-48.02188707330174
 20
2.000001688218309
 30
0.0
 10
-48.00746185088181
 20
1.999902978279046
 30
0.0
 10
-47.99999784581294
 20
2.000565701782142
 30
0.0
 10
-48.00000000001909
 20
2.000000000000103
 30
0.0
  0
LINE
  5
A0DE
330
A0C9
100
AcDbEntity
  8
0
100
AcDbLine
 10
-50.60606060606068
 20
0.0
 30
0.0
 11
-50.60606060606068
 21
2.000000000000014
 31
0.0
  0
SPLINE
  5
A0DF
330
A0C9
100
AcDbEntity
  8
0
100
AcDbSpline
210
0.0
220
0.0
230
1.0
 70
     8
 71
     3
 72
    28
 73
    24
 74
     0
 42
0.000000001
 43
0.0000000001
 40
0.0357732034702207
 40
0.0357732034702207
 40
0.0357732034702207
 40
0.0357732034702207
 40
0.0390422753477021
 40
0.0390422753477021
 40
0.0452611505236453
 40
0.0452611505236453
 40
0.0483374926703549
 40
0.0483374926703549
 40
0.051420878249091
 40
0.051420878249091
 40
0.0529575421118591
 40
0.0529575421118591
 40
0.054506259771405
 40
0.054506259771405
 40
0.0552768639429687
 40
0.0552768639429687
 40
0.0560490423741897
 40
0.0560490423741897
 40
0.0568196217484374
 40
0.0568196217484374
 40
0.0599779860108013
 40
0.0599779860108013
 40
0.0663268531873738
 40
0.0663268531873738
 40
0.0663268531873738
 40
0.0663268531873738
 10
-48.00328099785177
 20
3.842057251325678
 30
0.0
 10
-48.00328099785011
 20
3.842057251366286
 30
0.0
 10
-48.00325370308847
 20
3.84271512691308
 30
0.0
 10
-48.00307566836401
 20
3.847192838225038
 30
0.0
 10
-48.00281926781221
 20
3.853659085185339
 30
0.0
 10
-48.00230490581331
 20
3.868952895778834
 30
0.0
 10
-48.00211373393505
 20
3.874953169596207
 30
0.0
 10
-48.00171824158174
 20
3.888620143808027
 30
0.0
 10
-48.00151123847523
 20
3.896381733611455
 30
0.0
 10
-48.00120926593277
 20
3.909288426070483
 30
0.0
 10
-48.00110914437396
 20
3.913838539675269
 30
0.0
 10
-48.00091412426533
 20
3.923413604042023
 30
0.0
 10
-48.00081699725765
 20
3.928569998375643
 30
0.0
 10
-48.00068438693295
 20
3.936297115752557
 30
0.0
 10
-48.00064189434426
 20
3.93889618450659
 30
0.0
 10
-48.0005637280777
 20
3.943909393695198
 30
0.0
 10
-48.00052749021038
 20
3.946359798794187
 30
0.0
 10
-48.00046356992123
 20
3.950879018968522
 30
0.0
 10
-48.00043532219968
 20
3.952983957170674
 30
0.0
 10
-48.00030935107182
 20
3.962745419495827
 30
0.0
 10
-48.00025759965368
 20
3.967867505959406
 30
0.0
 10
-48.00012589227694
 20
3.981754123387651
 30
0.0
 10
-48.00006999202778
 20
3.989563038428966
 30
0.0
 10
-48.00002531920672
 20
4.000000108971985
 30
0.0
  0
SPLINE
  5
A0E0
330
A0C9
100
AcDbEntity
  8
0
100
AcDbSpline
210
0.0
220
0.0
230
1.0
 70
     8
 71
     3
 72
    24
 73
    20
 74
     0
 42
0.000000001
 43
0.0000000001
 40
0.0225455043780914
 40
0.0225455043780914
 40
0.0225455043780914
 40
0.0225455043780914
 40
0.0670584162440148
 40
0.0670584162440148
 40
0.1176569867121343
 40
0.1176569867121343
 40
0.1255739065929998
 40
0.1255739065929998
 40
0.1275474479309211
 40
0.1275474479309211
 40
0.1295305932931037
 40
0.1295305932931037
 40
0.1305201882450685
 40
0.1305201882450685
 40
0.1315137659608618
 40
0.1315137659608618
 40
0.1325098132625714
 40
0.1325098132625714
 40
0.1331618384337213
 40
0.1331618384337213
 40
0.1331618384337213
 40
0.1331618384337213
 10
-50.38760111845225
 20
2.000911654799036
 30
0.0
 10
-50.25277437877341
 20
2.002055086370621
 30
0.0
 10
-50.11870328401193
 20
2.004105436893179
 30
0.0
 10
-49.82488885384046
 20
2.015423834798843
 30
0.0
 10
-49.66175508148852
 20
2.02538729409765
 30
0.0
 10
-49.46909929947675
 20
2.052544208585752
 30
0.0
 10
-49.44256094127334
 20
2.056642799910241
 30
0.0
 10
-49.41059037259599
 20
2.06211299770841
 30
0.0
 10
-49.40425431364906
 20
2.063224475725341
 30
0.0
 10
-49.3919687533895
 20
2.065433787294656
 30
0.0
 10
-49.38592496785144
 20
2.066549999449403
 30
0.0
 10
-49.37787001038154
 20
2.068072834110788
 30
0.0
 10
-49.37533670047208
 20
2.068558169786664
 30
0.0
 10
-49.3708674331818
 20
2.069423429178923
 30
0.0
 10
-49.36890767055185
 20
2.069807989981538
 30
0.0
 10
-49.36590446938915
 20
2.070401936533554
 30
0.0
 10
-49.36484122773224
 20
2.070615025866058
 30
0.0
 10
-49.36389298446131
 20
2.070805715036703
 30
0.0
 10
-49.36371671482597
 20
2.070841469207802
 30
0.0
 10
-49.36371670695557
 20
2.070841470802833
 30
0.0
  0
LINE
  5
A0E1
330
A0C9
100
AcDbEntity
  8
0
100
AcDbLine
 10
-48.00000000000001
 20
2.000000000000003
 30
0.0
 11
-44.00000000000001
 21
1.999999999999999
 31
0.0
  0
LINE
  5
A0E2
330
A0C9
100
AcDbEntity
  8
0
100
AcDbLine
 10
-43.99999999999999
 20
86.0
 30
0.0
 11
-48.0
 21
86.0
 31
0.0
  0
LINE
  5
A0E3
330
A0C9
100
AcDbEntity
  8
0
100
AcDbLine
 10
-48.0
 20
2.000000000000003
 30
0.0
 11
-48.0
 21
86.0
 31
0.0
  0
LINE
  5
A0E4
330
A0C9
100
AcDbEntity
  8
0
100
AcDbLine
 10
48.00000000000001
 20
2.000000000000003
 30
0.0
 11
44.00000000000001
 21
1.999999999999999
 31
0.0
  0
LINE
  5
A0E5
330
A0C9
100
AcDbEntity
  8
0
100
AcDbLine
 10
48.0
 20
2.000000000000003
 30
0.0
 11
48.0
 21
86.0
 31
0.0
  0
LINE
  5
A0E6
330
A0C9
100
AcDbEntity
  8
0
100
AcDbLine
 10
43.99999999999999
 20
86.0
 30
0.0
 11
48.0
 21
86.0
 31
0.0
  0
LINE
  5
A0E7
330
A0C9
100
AcDbEntity
  8
0
100
AcDbLine
 10
87.50000000000007
 20
0.0
 30
0.0
 11
50.60606060606068
 21
0.0
 31
0.0
  0
LINE
  5
A0E8
330
A0C9
100
AcDbEntity
  8
0
100
AcDbLine
 10
87.50000000000007
 20
2.000000000000001
 30
0.0
 11
87.50000000000007
 21
0.0
 31
0.0
  0
LINE
  5
A0E9
330
A0C9
100
AcDbEntity
  8
0
100
AcDbLine
 10
50.60606060606068
 20
2.000000000000014
 30
0.0
 11
87.50000000000007
 21
2.000000000000001
 31
0.0
  0
LINE
  5
A0EA
330
A0C9
100
AcDbEntity
  8
0
100
AcDbLine
 10
-87.50000000000007
 20
2.000000000000001
 30
0.0
 11
-50.60606060606068
 21
2.000000000000014
 31
0.0
  0
LINE
  5
A0EB
330
A0C9
100
AcDbEntity
  8
0
100
AcDbLine
 10
-87.50000000000007
 20
0.0
 30
0.0
 11
-87.50000000000007
 21
2.000000000000001
 31
0.0
  0
LINE
  5
A0EC
330
A0C9
100
AcDbEntity
  8
0
100
AcDbLine
 10
-50.60606060606068
 20
0.0
 30
0.0
 11
-87.50000000000007
 21
0.0
 31
0.0
  0
ENDBLK
  5
A0CB
330
A0C9
100
AcDbEntity
  8
0
100
AcDbBlockEnd
  0
BLOCK
  5
A0EE
330
A0ED
100
AcDbEntity
  8
0
100
AcDbBlockBegin
  2
SAE380_92_2-ISO
 70
     0
 10
0.0
 20
0.0
 30
0.0
  3
SAE380_92_2-ISO
  1

  0
LINE
  5
A0F0
330
A0ED
100
AcDbEntity
  8
0
100
AcDbLine
 10
62.92407152236922
 20
-49.40291136546408
 30
0.0
 11
62.79892812635451
 21
-49.47516293884048
 31
0.0
  0
SPLINE
  5
A0F1
330
A0ED
100
AcDbEntity
  8
0
100
AcDbSpline
210
0.0
220
0.0
230
1.0
 70
     8
 71
     3
 72
    17
 73
    13
 74
     0
 42
0.000000001
 43
0.0000000001
 40
0.0
 40
0.0
 40
0.0
 40
0.0
 40
0.3704689058660782
 40
0.3704689058660782
 40
0.3704689058660782
 40
0.7029757053290038
 40
0.7029757053290038
 40
0.7029757053290038
 40
0.9335813790867151
 40
0.9335813790867151
 40
0.9335813790867151
 40
1.0
 40
1.0
 40
1.0
 40
1.0
 10
64.7668346490978
 20
-48.37455866410628
 30
0.0
 10
64.51725624287043
 20
-48.46557300930279
 30
0.0
 10
64.2035690338684
 20
-48.47564212353347
 30
0.0
 10
63.90210267923106
 20
-48.50699171901874
 30
0.0
 10
63.63152771021475
 20
-48.5351289081167
 30
0.0
 10
63.37476584323512
 20
-48.58266265525137
 30
0.0
 10
63.1925576932766
 20
-48.7277070710182
 30
0.0
 10
63.06618965132016
 20
-48.82830069880784
 30
0.0
 10
62.97471951938748
 20
-48.98023324240639
 30
0.0
 10
62.93954682657059
 20
-49.19486160558799
 30
0.0
 10
62.92941645244475
 20
-49.25667847097169
 30
0.0
 10
62.92366998756264
 20
-49.32243190017221
 30
0.0
 10
62.92407152238263
 20
-49.40291136546537
 30
0.0
  0
LINE
  5
A0F2
330
A0ED
100
AcDbEntity
  8
0
100
AcDbLine
 10
64.73208662743523
 20
-48.35449688444561
 30
0.0
 11
64.76683464909783
 21
-48.3745586641063
 31
0.0
  0
LINE
  5
A0F3
330
A0ED
100
AcDbEntity
  8
0
100
AcDbLine
 10
64.33828508474229
 20
-48.12713545776453
 30
0.0
 11
64.73208662743523
 21
-48.35449688444561
 31
0.0
  0
ELLIPSE
  5
A0F4
330
A0ED
100
AcDbEntity
  8
0
100
AcDbEllipse
 10
62.9240715223692
 20
-48.94363203869225
 30
0.0
 11
1.999999999999984
 21
-0.0000000000000002
 31
0.0
210
0.0
220
0.0
230
1.0
 40
0.5773502691896255
 41
0.7853981633974457
 42
0.8225763078181813
  0
ELLIPSE
  5
A0F5
330
A0ED
100
AcDbEntity
  8
0
100
AcDbEllipse
 10
62.9240715223692
 20
-48.94363203869225
 30
0.0
 11
1.999999999999983
 21
-0.0000000000001196
 31
0.0
210
0.0
220
0.0
230
1.0
 40
0.5773502691896257
 41
0.8225763078184193
 42
2.356194490192596
  0
LINE
  5
A0F6
330
A0ED
100
AcDbEntity
  8
0
100
AcDbLine
 10
61.50985795999611
 20
-48.95025020080474
 30
0.0
 11
61.50985795999611
 21
-48.12713545776453
 31
0.0
  0
LINE
  5
A0F7
330
A0ED
100
AcDbEntity
  8
0
100
AcDbLine
 10
61.50985795999611
 20
-50.2194079463918
 30
0.0
 11
61.50985795999611
 21
-48.95025020080474
 31
0.0
  0
LINE
  5
A0F8
330
A0ED
100
AcDbEntity
  8
0
100
AcDbLine
 10
62.79892812627156
 20
-49.47516293888836
 30
0.0
 11
61.50985795999613
 21
-50.21940794639181
 31
0.0
  0
ELLIPSE
  5
A0F9
330
A0ED
100
AcDbEntity
  8
0
100
AcDbEllipse
 10
-17.68610153289719
 20
-69.8153258886572
 30
0.0
 11
-2.5
 21
-0.0000000000001499
 31
0.0
210
0.0
220
0.0
230
1.0
 40
0.5773502691896258
 41
3.74285687026858
 42
5.681921090500121
  0
ELLIPSE
  5
A0FA
330
A0ED
100
AcDbEntity
  8
0
100
AcDbEllipse
 10
-3.543965909166244
 20
-61.65036007937994
 30
0.0
 11
-2.5
 21
-0.0000000000001499
 31
0.0
210
0.0
220
0.0
230
1.0
 40
0.5773502691896258
 41
3.74285687026858
 42
5.681921090500121
  0
LINE
  5
A0FB
330
A0ED
100
AcDbEntity
  8
0
100
AcDbLine
 10
0.6986747779530278
 20
-95.12671989741674
 30
0.0
 11
-61.52672196646317
 21
-59.20087033659676
 31
0.0
  0
LINE
  5
A0FC
330
A0ED
100
AcDbEntity
  8
0
100
AcDbLine
 10
-3.543965909166271
 20
-11.02757206186094
 30
0.0
 11
-3.543965909166271
 21
-20.82553103299364
 31
0.0
  0
LINE
  5
A0FD
330
A0ED
100
AcDbEntity
  8
0
100
AcDbLine
 10
29.23479227624849
 20
-41.38334905689995
 30
0.0
 11
-2.129752346793183
 21
-23.27502077577682
 31
0.0
  0
LINE
  5
A0FE
330
A0ED
100
AcDbEntity
  8
0
100
AcDbLine
 10
-61.52672196646315
 20
-57.56787717474132
 30
0.0
 11
0.6986747779530323
 21
-93.49372673556125
 31
0.0
  0
ELLIPSE
  5
A0FF
330
A0ED
100
AcDbEntity
  8
0
100
AcDbEllipse
 10
-3.543965909166244
 20
-60.01736691752448
 30
0.0
 11
-2.5
 21
0.0000000000001492
 31
0.0
210
0.0
220
0.0
230
1.0
 40
0.5773502691896258
 41
0.0
 42
6.283185307179586
  0
ELLIPSE
  5
A100
330
A0ED
100
AcDbEntity
  8
0
100
AcDbEllipse
 10
-17.68610153289719
 20
-68.18233272680174
 30
0.0
 11
-2.5
 21
0.0000000000001492
 31
0.0
210
0.0
220
0.0
230
1.0
 40
0.5773502691896258
 41
0.0
 42
6.283185307179586
  0
LINE
  5
A101
330
A0ED
100
AcDbEntity
  8
0
100
AcDbLine
 10
-3.543965909166271
 20
-11.02757206186094
 30
0.0
 11
-4.958179471539367
 21
-11.84406864278867
 31
0.0
  0
SPLINE
  5
A102
330
A0ED
100
AcDbEntity
  8
0
100
AcDbSpline
210
0.0
220
0.0
230
1.0
 70
     8
 71
     3
 72
    11
 73
     7
 74
     0
 42
0.000000001
 43
0.0000000001
 40
-1.0
 40
-1.0
 40
-1.0
 40
-1.0
 40
-0.7907552673919842
 40
-0.7907552673919842
 40
-0.7907552673919842
 40
-0.6580591885838772
 40
-0.6580591885838772
 40
-0.6580591885838772
 40
-0.6580591885838772
 10
-3.543965909166386
 20
-11.02757206186101
 30
0.0
 10
-3.541926225394163
 20
-10.6293193116206
 30
0.0
 10
-3.576973235862657
 20
-10.24152263960173
 30
0.0
 10
-3.641568442756479
 20
-9.887933403415525
 30
0.0
 10
-3.682532583443669
 20
-9.663698821422199
 30
0.0
 10
-3.734879738105854
 20
-9.448252867345736
 30
0.0
 10
-3.797719356295576
 20
-9.238922527660978
 30
0.0
  0
ELLIPSE
  5
A103
330
A0ED
100
AcDbEntity
  8
0
100
AcDbEllipse
 10
-7.786606596285547
 20
-8.118802992305962
 30
0.0
 11
3.999999999999985
 21
-0.0000000000000001
 31
0.0
210
0.0
220
0.0
230
1.0
 40
0.5773502691896257
 41
6.068647301404905
 42
6.283185307179584
  0
ELLIPSE
  5
A104
330
A0ED
100
AcDbEntity
  8
0
100
AcDbEllipse
 10
-7.786606596285547
 20
-8.118802992305962
 30
0.0
 11
3.999999999999985
 21
-0.0000000000000001
 31
0.0
210
0.0
220
0.0
230
1.0
 40
0.5773502691896257
 41
5.497787143782133
 42
6.068647301404905
  0
LINE
  5
A105
330
A0ED
100
AcDbEntity
  8
0
100
AcDbLine
 10
-4.958179471539363
 20
-9.751796154161409
 30
0.0
 11
-4.958179471539363
 21
-11.84406864278868
 31
0.0
  0
SPLINE
  5
A106
330
A0ED
100
AcDbEntity
  8
0
100
AcDbSpline
210
0.0
220
0.0
230
1.0
 70
     8
 71
     3
 72
    16
 73
    12
 74
     0
 42
0.000000001
 43
0.0000000001
 40
0.0
 40
0.0
 40
0.0
 40
0.0
 40
0.0351246650057309
 40
0.0351246650057309
 40
0.0553378236530801
 40
0.0553378236530801
 40
0.0803966040201146
 40
0.0803966040201146
 40
0.1060253998017749
 40
0.1060253998017749
 40
0.1164300315023067
 40
0.1164300315023067
 40
0.1164300315023067
 40
0.1164300315023067
 10
-3.797979267310167
 20
-8.292830745351045
 30
0.0
 10
-3.81317389201111
 20
-8.408918981365696
 30
0.0
 10
-3.828103765669497
 20
-8.527147249748727
 30
0.0
 10
-3.842956402561759
 20
-8.704512404463438
 30
0.0
 10
-3.84653237689454
 20
-8.768025349570569
 30
0.0
 10
-3.84877614958289
 20
-8.899119561201747
 30
0.0
 10
-3.846042121502293
 20
-8.964972727322937
 30
0.0
 10
-3.834177022693636
 20
-9.080413651269818
 30
0.0
 10
-3.825120453416075
 20
-9.131039949011711
 30
0.0
 10
-3.808285707436271
 20
-9.199850702394867
 30
0.0
 10
-3.802894099003335
 20
-9.219581201248914
 30
0.0
 10
-3.796779344588325
 20
-9.239902380263833
 30
0.0
  0
ELLIPSE
  5
A107
330
A0ED
100
AcDbEntity
  8
0
100
AcDbEllipse
 10
-2.12975234679317
 20
-21.64202761392137
 30
0.0
 11
1.000000000000105
 21
-1.732050807568816
 31
0.0
210
0.0
220
0.0
230
1.0
 40
0.5773502691896266
 41
3.926990816987
 42
5.497787143781895
  0
LINE
  5
A108
330
A0ED
100
AcDbEntity
  8
0
100
AcDbLine
 10
-2.129752346793183
 20
-23.27502077577682
 30
0.0
 11
-61.52672196646314
 21
-57.56787717474132
 31
0.0
  0
ELLIPSE
  5
A109
330
A0ED
100
AcDbEntity
  8
0
100
AcDbEllipse
 10
-61.52672196646315
 20
-55.93488401288587
 30
0.0
 11
2.000000000000208
 21
-3.464101615137639
 31
0.0
210
0.0
220
0.0
230
1.0
 40
0.5773502691896258
 41
3.926990816986997
 42
5.497787143781893
  0
LINE
  5
A10A
330
A0ED
100
AcDbEntity
  8
0
100
AcDbLine
 10
-62.94093552883624
 20
-55.11838743195814
 30
0.0
 11
-3.543965909166262
 21
-20.82553103299364
 31
0.0
  0
LINE
  5
A10B
330
A0ED
100
AcDbEntity
  8
0
100
AcDbLine
 10
-64.35514909120936
 20
-54.30189085103041
 30
0.0
 11
-62.94093552883624
 21
-55.11838743195814
 31
0.0
  0
LINE
  5
A10C
330
A0ED
100
AcDbEntity
  8
0
100
AcDbLine
 10
-61.52672196646315
 20
-59.20087033659677
 30
0.0
 11
-61.52672196646315
 21
-57.56787717474132
 31
0.0
  0
ELLIPSE
  5
A10D
330
A0ED
100
AcDbEntity
  8
0
100
AcDbEllipse
 10
-61.52672196646315
 20
-55.93488401288587
 30
0.0
 11
1.000000000000104
 21
-1.732050807568818
 31
0.0
210
0.0
220
0.0
230
1.0
 40
0.577350269189626
 41
3.926990816986997
 42
5.497787143781897
  0
LINE
  5
A10E
330
A0ED
100
AcDbEntity
  8
0
100
AcDbLine
 10
62.92407152236922
 20
-59.20087033659676
 30
0.0
 11
62.92407152236922
 21
-49.40291136546408
 31
0.0
  0
ELLIPSE
  5
A10F
330
A0ED
100
AcDbEntity
  8
0
100
AcDbEllipse
 10
60.09564439762304
 20
-57.56787717474132
 30
0.0
 11
2.0
 21
-3.464101615137754
 31
0.0
210
0.0
220
0.0
230
1.0
 40
0.5773502691896252
 41
0.0
 42
0.7853981633974465
  0
LINE
  5
A110
330
A0ED
100
AcDbEntity
  8
0
100
AcDbLine
 10
0.6986747779530278
 20
-93.49372673556125
 30
0.0
 11
2.11288834032612
 21
-92.67723015463353
 31
0.0
  0
LINE
  5
A111
330
A0ED
100
AcDbEntity
  8
0
100
AcDbLine
 10
62.92407152236922
 20
-59.20087033659676
 30
0.0
 11
3.527101902699216
 21
-93.49372673556125
 31
0.0
  0
ELLIPSE
  5
A112
330
A0ED
100
AcDbEntity
  8
0
100
AcDbEllipse
 10
0.6986747779530189
 20
-91.86073357370579
 30
0.0
 11
2.000000000000002
 21
-3.464101615137756
 31
0.0
210
0.0
220
0.0
230
1.0
 40
0.577350269189626
 41
5.497787143782137
 42
7.068583470577033
  0
LINE
  5
A113
330
A0ED
100
AcDbEntity
  8
0
100
AcDbLine
 10
90.85478937923788
 20
-38.58433166817176
 30
0.0
 11
92.26900294161097
 21
-37.76783508724403
 31
0.0
  0
LINE
  5
A114
330
A0ED
100
AcDbEntity
  8
0
100
AcDbLine
 10
64.76683464909783
 20
-48.3745586641063
 30
0.0
 11
90.85478937923788
 21
-38.58433166817176
 31
0.0
  0
ELLIPSE
  5
A115
330
A0ED
100
AcDbEntity
  8
0
100
AcDbEllipse
 10
78.48042070847326
 20
33.06324330823625
 30
0.0
 11
-3.25
 21
5.629165124598853
 31
0.0
210
0.0
220
0.0
230
1.0
 40
0.5773502691896258
 41
0.2193254863005917
 42
2.922267167289199
  0
ELLIPSE
  5
A116
330
A0ED
100
AcDbEntity
  8
0
100
AcDbEllipse
 10
86.25859530152528
 20
32.65499501777239
 30
0.0
 11
1.250000000000129
 21
-2.165063509461021
 31
0.0
210
0.0
220
0.0
230
1.0
 40
0.5773502691896258
 41
3.742856870268575
 42
5.681921090500121
  0
LINE
  5
A117
330
A0ED
100
AcDbEntity
  8
0
100
AcDbLine
 10
65.75249864711539
 20
56.74164415514028
 30
0.0
 11
92.26900294161092
 21
41.43233326274542
 31
0.0
  0
LINE
  5
A118
330
A0ED
100
AcDbEntity
  8
0
100
AcDbLine
 10
92.26900294161097
 20
-37.76783508724403
 30
0.0
 11
92.26900294161092
 21
41.43233326274541
 31
0.0
  0
ELLIPSE
  5
A119
330
A0ED
100
AcDbEntity
  8
0
100
AcDbEllipse
 10
62.9240715223692
 20
55.10865099328484
 30
0.0
 11
3.999999999999994
 21
-0.0000000000002384
 31
0.0
210
0.0
220
0.0
230
1.0
 40
0.5773502691896258
 41
0.7853981633976899
 42
2.356194490192587
  0
ELLIPSE
  5
A11A
330
A0ED
100
AcDbEntity
  8
0
100
AcDbEllipse
 10
35.70046044668712
 20
30.40962942022112
 30
0.0
 11
1.249999999999871
 21
2.16506350946117
 31
0.0
210
0.0
220
0.0
230
1.0
 40
0.577350269189626
 41
3.742856870268578
 42
5.681921090500118
  0
ELLIPSE
  5
A11B
330
A0ED
100
AcDbEntity
  8
0
100
AcDbEllipse
 10
37.11467400906022
 20
29.5931328392934
 30
0.0
 11
-1.25
 21
-2.165063509461096
 31
0.0
210
0.0
220
0.0
230
0.9999999999999998
 40
0.577350269189626
 41
0.0
 42
6.283185307179586
  0
LINE
  5
A11C
330
A0ED
100
AcDbEntity
  8
0
100
AcDbLine
 10
2.112888340326102
 20
-82.87927118350083
 30
0.0
 11
30.39715958778801
 21
-39.60495239433138
 31
0.0
  0
LINE
  5
A11D
330
A0ED
100
AcDbEntity
  8
0
100
AcDbLine
 10
3.527101902699198
 20
-83.69576776442855
 30
0.0
 11
2.112888340326102
 21
-82.87927118350083
 31
0.0
  0
LINE
  5
A11E
330
A0ED
100
AcDbEntity
  8
0
100
AcDbLine
 10
31.81137315016111
 20
-40.42144897525911
 30
0.0
 11
3.527101902699198
 21
-83.69576776442855
 31
0.0
  0
LINE
  5
A11F
330
A0ED
100
AcDbEntity
  8
0
100
AcDbLine
 10
31.81137315016111
 20
-40.42144897525911
 30
0.0
 11
30.39715958778801
 21
-39.60495239433138
 31
0.0
  0
LINE
  5
A120
330
A0ED
100
AcDbEntity
  8
0
100
AcDbLine
 10
30.39715958778801
 20
-39.60495239433138
 30
0.0
 11
30.39715958778803
 21
39.59521595565805
 31
0.0
  0
LINE
  5
A121
330
A0ED
100
AcDbEntity
  8
0
100
AcDbLine
 10
31.81137315016112
 20
38.77871937473031
 30
0.0
 11
31.81137315016111
 21
-40.42144897525911
 31
0.0
  0
LINE
  5
A122
330
A0ED
100
AcDbEntity
  8
0
100
AcDbLine
 10
30.39715958778803
 20
39.59521595565804
 30
0.0
 11
31.81137315016112
 21
38.77871937473031
 31
0.0
  0
LINE
  5
A123
330
A0ED
100
AcDbEntity
  8
0
100
AcDbLine
 10
3.527101902699198
 20
-83.69576776442855
 30
0.0
 11
3.527101902699212
 21
-93.49372673556125
 31
0.0
  0
LINE
  5
A124
330
A0ED
100
AcDbEntity
  8
0
100
AcDbLine
 10
61.50985795999611
 20
-48.12713545776453
 30
0.0
 11
61.50985795999611
 21
55.92514757421255
 31
0.0
  0
LINE
  5
A125
330
A0ED
100
AcDbEntity
  8
0
100
AcDbLine
 10
61.50985795999611
 20
55.92514757421256
 30
0.0
 11
31.81137315016112
 21
38.77871937473031
 31
0.0
  0
LINE
  5
A126
330
A0ED
100
AcDbEntity
  8
0
100
AcDbLine
 10
30.39715958778803
 20
39.59521595565804
 30
0.0
 11
60.09564439762302
 21
56.74164415514028
 31
0.0
  0
LINE
  5
A127
330
A0ED
100
AcDbEntity
  8
0
100
AcDbLine
 10
2.112888340326111
 20
-92.67723015463353
 30
0.0
 11
2.112888340326102
 21
-82.87927118350083
 31
0.0
  0
LINE
  5
A128
330
A0ED
100
AcDbEntity
  8
0
100
AcDbLine
 10
0.6986747779530278
 20
-93.49372673556125
 30
0.0
 11
0.6986747779530278
 21
-95.12671989741674
 31
0.0
  0
LINE
  5
A129
330
A0ED
100
AcDbEntity
  8
0
100
AcDbLine
 10
2.112888340326111
 20
-92.67723015463353
 30
0.0
 11
3.527101902699212
 21
-93.49372673556125
 31
0.0
  0
ELLIPSE
  5
A12A
330
A0ED
100
AcDbEntity
  8
0
100
AcDbEllipse
 10
0.6986747779530189
 20
-91.86073357370579
 30
0.0
 11
1.0
 21
-1.732050807568878
 31
0.0
210
0.0
220
0.0
230
1.0
 40
0.577350269189626
 41
5.497787143782142
 42
7.068583470577038
  0
LINE
  5
A12B
330
A0ED
100
AcDbEntity
  8
0
100
AcDbLine
 10
64.33828508474229
 20
-48.12713545776453
 30
0.0
 11
64.33828508474229
 21
55.92514757421255
 31
0.0
  0
ELLIPSE
  5
A12C
330
A0ED
100
AcDbEntity
  8
0
100
AcDbEllipse
 10
62.9240715223692
 20
55.10865099328484
 30
0.0
 11
-1.999999999999992
 21
-0.0000000000001194
 31
0.0
210
0.0
220
0.0
230
1.0
 40
0.5773502691896257
 41
3.926990816986995
 42
5.497787143781892
  0
LINE
  5
A12D
330
A0ED
100
AcDbEntity
  8
0
100
AcDbLine
 10
92.26900294161092
 20
41.43233326274542
 30
0.0
 11
90.85478937923781
 21
40.61583668181769
 31
0.0
  0
LINE
  5
A12E
330
A0ED
100
AcDbEntity
  8
0
100
AcDbLine
 10
90.85478937923788
 20
-38.58433166817176
 30
0.0
 11
90.85478937923781
 21
40.6158366818177
 31
0.0
  0
LINE
  5
A12F
330
A0ED
100
AcDbEntity
  8
0
100
AcDbLine
 10
61.50985795999611
 20
55.92514757421256
 30
0.0
 11
60.09564439762302
 21
56.74164415514028
 31
0.0
  0
LINE
  5
A130
330
A0ED
100
AcDbEntity
  8
0
100
AcDbLine
 10
64.33828508474229
 20
55.92514757421256
 30
0.0
 11
65.75249864711539
 21
56.74164415514028
 31
0.0
  0
LINE
  5
A131
330
A0ED
100
AcDbEntity
  8
0
100
AcDbLine
 10
90.85478937923781
 20
40.61583668181769
 30
0.0
 11
64.33828508474229
 21
55.92514757421256
 31
0.0
  0
ELLIPSE
  5
A132
330
A0ED
100
AcDbEntity
  8
0
100
AcDbEllipse
 10
77.06620714610017
 20
32.24674672730853
 30
0.0
 11
-3.25
 21
5.629165124598853
 31
0.0
210
0.0
220
0.0
230
1.0
 40
0.5773502691896258
 41
0.0
 42
6.283185307179586
  0
ELLIPSE
  5
A133
330
A0ED
100
AcDbEntity
  8
0
100
AcDbEllipse
 10
84.8443817391522
 20
31.83849843684467
 30
0.0
 11
-1.249999999999999
 21
2.165063509461096
 31
0.0
210
0.0
220
0.0
230
1.0
 40
0.5773502691896259
 41
0.0
 42
6.283185307179586
  0
LINE
  5
A134
330
A0ED
100
AcDbEntity
  8
0
100
AcDbLine
 10
2.698674777953025
 20
-95.32483518884355
 30
0.0
 11
62.09564439762303
 21
-61.03197878987907
 31
0.0
  0
ELLIPSE
  5
A135
330
A0ED
100
AcDbEntity
  8
0
100
AcDbEllipse
 10
78.48042070847326
 20
-24.09151735670457
 30
0.0
 11
-3.25
 21
5.629165124598853
 31
0.0
210
0.0
220
0.0
230
1.0
 40
0.5773502691896259
 41
0.2193254863005922
 42
2.9222671672892
  0
ELLIPSE
  5
A136
330
A0ED
100
AcDbEntity
  8
0
100
AcDbEllipse
 10
77.06620714610017
 20
-24.90801393763229
 30
0.0
 11
-3.25
 21
5.629165124598853
 31
0.0
210
0.0
220
0.0
230
1.0
 40
0.5773502691896258
 41
0.0
 42
6.283185307179586
  0
ELLIPSE
  5
A137
330
A0ED
100
AcDbEntity
  8
0
100
AcDbEllipse
 10
70.70224611542123
 20
-31.84823487551796
 30
0.0
 11
1.250000000000129
 21
-2.165063509461021
 31
0.0
210
0.0
220
0.0
230
1.0
 40
0.5773502691896258
 41
3.742856870268576
 42
5.68192109050012
  0
ELLIPSE
  5
A138
330
A0ED
100
AcDbEntity
  8
0
100
AcDbEllipse
 10
70.70224611542123
 20
-15.51830325696344
 30
0.0
 11
1.250000000000129
 21
-2.165063509461021
 31
0.0
210
0.0
220
0.0
230
1.0
 40
0.5773502691896258
 41
3.742856870268578
 42
5.681921090500121
  0
ELLIPSE
  5
A139
330
A0ED
100
AcDbEntity
  8
0
100
AcDbEllipse
 10
70.70224611542123
 20
0.8116283615910813
 30
0.0
 11
1.250000000000129
 21
-2.165063509461021
 31
0.0
210
0.0
220
0.0
230
1.0
 40
0.5773502691896258
 41
3.742856870268576
 42
5.681921090500121
  0
ELLIPSE
  5
A13A
330
A0ED
100
AcDbEntity
  8
0
100
AcDbEllipse
 10
70.70224611542123
 20
17.14155998014559
 30
0.0
 11
1.250000000000129
 21
-2.165063509461021
 31
0.0
210
0.0
220
0.0
230
1.0
 40
0.5773502691896258
 41
3.742856870268578
 42
5.681921090500121
  0
ELLIPSE
  5
A13B
330
A0ED
100
AcDbEntity
  8
0
100
AcDbEllipse
 10
70.70224611542123
 20
33.47149159870011
 30
0.0
 11
1.250000000000129
 21
-2.165063509461021
 31
0.0
210
0.0
220
0.0
230
1.0
 40
0.5773502691896258
 41
3.742856870268576
 42
5.68192109050012
  0
ELLIPSE
  5
A13C
330
A0ED
100
AcDbEntity
  8
0
100
AcDbEllipse
 10
69.28803255304814
 20
-32.66473145644569
 30
0.0
 11
-1.249999999999999
 21
2.165063509461096
 31
0.0
210
0.0
220
0.0
230
1.0
 40
0.5773502691896259
 41
0.0
 42
6.283185307179586
  0
ELLIPSE
  5
A13D
330
A0ED
100
AcDbEntity
  8
0
100
AcDbEllipse
 10
69.28803255304814
 20
-16.33479983789116
 30
0.0
 11
-1.249999999999999
 21
2.165063509461096
 31
0.0
210
0.0
220
0.0
230
1.0
 40
0.5773502691896259
 41
0.0
 42
6.283185307179586
  0
ELLIPSE
  5
A13E
330
A0ED
100
AcDbEntity
  8
0
100
AcDbEllipse
 10
69.28803255304814
 20
-0.0048682193366467
 30
0.0
 11
-1.249999999999999
 21
2.165063509461096
 31
0.0
210
0.0
220
0.0
230
1.0
 40
0.5773502691896259
 41
0.0
 42
6.283185307179586
  0
ELLIPSE
  5
A13F
330
A0ED
100
AcDbEntity
  8
0
100
AcDbEllipse
 10
69.28803255304814
 20
16.32506339921787
 30
0.0
 11
-1.249999999999999
 21
2.165063509461096
 31
0.0
210
0.0
220
0.0
230
1.0
 40
0.5773502691896259
 41
0.0
 42
6.283185307179586
  0
ELLIPSE
  5
A140
330
A0ED
100
AcDbEntity
  8
0
100
AcDbEllipse
 10
69.28803255304814
 20
32.65499501777239
 30
0.0
 11
-1.249999999999999
 21
2.165063509461096
 31
0.0
210
0.0
220
0.0
230
1.0
 40
0.5773502691896259
 41
0.0
 42
6.283185307179586
  0
ELLIPSE
  5
A141
330
A0ED
100
AcDbEntity
  8
0
100
AcDbEllipse
 10
70.70224611542123
 20
49.80142321725463
 30
0.0
 11
1.250000000000129
 21
-2.165063509461021
 31
0.0
210
0.0
220
0.0
230
1.0
 40
0.5773502691896258
 41
3.74285687026858
 42
5.681921090500121
  0
ELLIPSE
  5
A142
330
A0ED
100
AcDbEntity
  8
0
100
AcDbEllipse
 10
-11.32214050221828
 20
95.52523174920725
 30
0.0
 11
1.25
 21
-2.165063509461096
 31
0.0
210
0.0
220
0.0
230
0.9999999999999998
 40
0.577350269189626
 41
0.0
 42
6.283185307179586
  0
ELLIPSE
  5
A143
330
A0ED
100
AcDbEntity
  8
0
100
AcDbEllipse
 10
-9.907926939845186
 20
96.34172833013501
 30
0.0
 11
1.250000000000129
 21
-2.165063509461021
 31
0.0
210
0.0
220
0.0
230
1.0
 40
0.577350269189626
 41
3.742856870268578
 42
5.681921090500117
  0
ELLIPSE
  5
A144
330
A0ED
100
AcDbEntity
  8
0
100
AcDbEllipse
 10
69.28803255304814
 20
48.98492663632691
 30
0.0
 11
-1.249999999999999
 21
2.165063509461096
 31
0.0
210
0.0
220
0.0
230
1.0
 40
0.5773502691896259
 41
0.0
 42
6.283185307179586
  0
ELLIPSE
  5
A145
330
A0ED
100
AcDbEntity
  8
0
100
AcDbEllipse
 10
86.25859530152528
 20
-32.6647314564457
 30
0.0
 11
1.250000000000129
 21
-2.165063509461021
 31
0.0
210
0.0
220
0.0
230
1.0
 40
0.5773502691896258
 41
3.742856870268575
 42
5.681921090500121
  0
ELLIPSE
  5
A146
330
A0ED
100
AcDbEntity
  8
0
100
AcDbEllipse
 10
86.25859530152528
 20
-16.33479983789117
 30
0.0
 11
1.250000000000129
 21
-2.165063509461021
 31
0.0
210
0.0
220
0.0
230
1.0
 40
0.5773502691896258
 41
3.742856870268575
 42
5.68192109050011
  0
ELLIPSE
  5
A147
330
A0ED
100
AcDbEntity
  8
0
100
AcDbEllipse
 10
86.25859530152528
 20
-0.0048682193366556
 30
0.0
 11
1.250000000000129
 21
-2.165063509461021
 31
0.0
210
0.0
220
0.0
230
1.0
 40
0.5773502691896258
 41
3.742856870268575
 42
5.68192109050011
  0
ELLIPSE
  5
A148
330
A0ED
100
AcDbEntity
  8
0
100
AcDbEllipse
 10
86.25859530152528
 20
16.32506339921787
 30
0.0
 11
1.250000000000129
 21
-2.165063509461021
 31
0.0
210
0.0
220
0.0
230
1.0
 40
0.5773502691896258
 41
3.742856870268575
 42
5.68192109050011
  0
ELLIPSE
  5
A149
330
A0ED
100
AcDbEntity
  8
0
100
AcDbEllipse
 10
84.8443817391522
 20
-33.48122803737342
 30
0.0
 11
-1.249999999999999
 21
2.165063509461096
 31
0.0
210
0.0
220
0.0
230
1.0
 40
0.5773502691896259
 41
0.0
 42
6.283185307179586
  0
ELLIPSE
  5
A14A
330
A0ED
100
AcDbEntity
  8
0
100
AcDbEllipse
 10
84.8443817391522
 20
-17.1512964188189
 30
0.0
 11
-1.249999999999999
 21
2.165063509461096
 31
0.0
210
0.0
220
0.0
230
1.0
 40
0.5773502691896259
 41
0.0
 42
6.283185307179586
  0
ELLIPSE
  5
A14B
330
A0ED
100
AcDbEntity
  8
0
100
AcDbEllipse
 10
84.8443817391522
 20
-0.8213648002643747
 30
0.0
 11
-1.249999999999999
 21
2.165063509461096
 31
0.0
210
0.0
220
0.0
230
1.0
 40
0.5773502691896259
 41
0.0
 42
6.283185307179586
  0
ELLIPSE
  5
A14C
330
A0ED
100
AcDbEntity
  8
0
100
AcDbEllipse
 10
84.8443817391522
 20
15.50856681829014
 30
0.0
 11
-1.249999999999999
 21
2.165063509461096
 31
0.0
210
0.0
220
0.0
230
1.0
 40
0.5773502691896259
 41
0.0
 42
6.283185307179586
  0
LINE
  5
A14D
330
A0ED
100
AcDbEntity
  8
0
100
AcDbLine
 10
-30.0888819652593
 20
28.57515666033445
 30
0.0
 11
-29.38167012126863
 21
27.49313794680387
 31
0.0
  0
LINE
  5
A14E
330
A0ED
100
AcDbEntity
  8
0
100
AcDbLine
 10
-34.65666428137436
 20
-2.046109671655997
 30
0.0
 11
-62.94093552883627
 21
-45.32042846082545
 31
0.0
  0
LINE
  5
A14F
330
A0ED
100
AcDbEntity
  8
0
100
AcDbLine
 10
-36.07087784374745
 20
-1.229613090728269
 30
0.0
 11
-34.65666428137436
 21
-2.046109671655997
 31
0.0
  0
LINE
  5
A150
330
A0ED
100
AcDbEntity
  8
0
100
AcDbLine
 10
-64.35514909120936
 20
-44.50393187989774
 30
0.0
 11
-36.07087784374745
 21
-1.229613090728269
 31
0.0
  0
LINE
  5
A151
330
A0ED
100
AcDbEntity
  8
0
100
AcDbLine
 10
-62.94093552883627
 20
-45.32042846082545
 30
0.0
 11
-64.35514909120936
 21
-44.50393187989774
 31
0.0
  0
LINE
  5
A152
330
A0ED
100
AcDbEntity
  8
0
100
AcDbLine
 10
-34.65666428137435
 20
77.15405867833343
 30
0.0
 11
-34.65666428137436
 21
-2.046109671655997
 31
0.0
  0
LINE
  5
A153
330
A0ED
100
AcDbEntity
  8
0
100
AcDbLine
 10
-36.07087784374744
 20
77.97055525926116
 30
0.0
 11
-34.65666428137435
 21
77.15405867833343
 31
0.0
  0
LINE
  5
A154
330
A0ED
100
AcDbEntity
  8
0
100
AcDbLine
 10
-36.07087784374745
 20
-1.229613090728269
 30
0.0
 11
-36.07087784374744
 21
77.97055525926116
 31
0.0
  0
ELLIPSE
  5
A155
330
A0ED
100
AcDbEntity
  8
0
100
AcDbEllipse
 10
-19.1003150952703
 20
87.76851423039389
 30
0.0
 11
-3.250000000000004
 21
5.629165124598848
 31
0.0
210
0.0
220
0.0
230
0.9999999999999998
 40
0.577350269189626
 41
4.71238898038469
 42
7.853981633974483
  0
ELLIPSE
  5
A156
330
A0ED
100
AcDbEntity
  8
0
100
AcDbEllipse
 10
-17.68610153289721
 20
88.5850108113216
 30
0.0
 11
-3.250000000000002
 21
5.629165124598852
 31
0.0
210
0.0
220
0.0
230
1.0
 40
0.5773502691896259
 41
0.2193254863005913
 42
1.570796326794897
  0
ELLIPSE
  5
A157
330
A0ED
100
AcDbEntity
  8
0
100
AcDbEllipse
 10
-26.87848968832233
 20
96.34172833013501
 30
0.0
 11
1.25
 21
-2.165063509461096
 31
0.0
210
0.0
220
0.0
230
0.9999999999999998
 40
0.577350269189626
 41
0.0
 42
6.283185307179586
  0
ELLIPSE
  5
A158
330
A0ED
100
AcDbEntity
  8
0
100
AcDbEllipse
 10
-25.46427612594924
 20
97.15822491106273
 30
0.0
 11
1.250000000000129
 21
-2.165063509461021
 31
0.0
210
0.0
220
0.0
230
1.0
 40
0.577350269189626
 41
3.742856870268576
 42
5.681921090500115
  0
LINE
  5
A159
330
A0ED
100
AcDbEntity
  8
0
100
AcDbLine
 10
-6.372393033912464
 20
95.11698345874339
 30
0.0
 11
-6.372393033912455
 21
96.74997662059887
 31
0.0
  0
ELLIPSE
  5
A15A
330
A0ED
100
AcDbEntity
  8
0
100
AcDbEllipse
 10
-7.786606596285547
 20
95.93348003967115
 30
0.0
 11
1.999999999999993
 21
0.0
 31
0.0
210
0.0
220
0.0
230
1.0
 40
0.5773502691896257
 41
5.497787143782138
 42
7.06858347057703
  0
LINE
  5
A15B
330
A0ED
100
AcDbEntity
  8
0
100
AcDbLine
 10
-4.958179471539363
 20
94.30048687781567
 30
0.0
 11
-4.958179471539363
 21
-9.751796154161418
 31
0.0
  0
ELLIPSE
  5
A15C
330
A0ED
100
AcDbEntity
  8
0
100
AcDbEllipse
 10
-7.786606596285547
 20
95.93348003967115
 30
0.0
 11
3.999999999999994
 21
0.0000000000000003
 31
0.0
210
0.0
220
0.0
230
1.0
 40
0.5773502691896258
 41
5.497787143782135
 42
7.06858347057703
  0
LINE
  5
A15D
330
A0ED
100
AcDbEntity
  8
0
100
AcDbLine
 10
-6.372393033912455
 20
96.74997662059887
 30
0.0
 11
-4.958179471539359
 21
97.56647320152659
 31
0.0
  0
LINE
  5
A15E
330
A0ED
100
AcDbEntity
  8
0
100
AcDbLine
 10
-6.37239303391246
 20
95.11698345874339
 30
0.0
 11
-4.958179471539363
 21
94.30048687781567
 31
0.0
  0
LINE
  5
A15F
330
A0ED
100
AcDbEntity
  8
0
100
AcDbLine
 10
-3.786606596285566
 20
-8.118802992305944
 30
0.0
 11
-3.786606596285566
 21
95.93348003967115
 31
0.0
  0
LINE
  5
A160
330
A0ED
100
AcDbEntity
  8
0
100
AcDbLine
 10
-32.88889732840801
 20
112.0592875129937
 30
0.0
 11
-6.372393033912455
 21
96.74997662059887
 31
0.0
  0
LINE
  5
A161
330
A0ED
100
AcDbEntity
  8
0
100
AcDbLine
 10
-32.88889732840804
 20
79.80767256634854
 30
0.0
 11
-32.88889732840801
 21
112.0592875129937
 31
0.0
  0
LINE
  5
A162
330
A0ED
100
AcDbEntity
  8
0
100
AcDbLine
 10
-62.94093552883624
 20
-55.11838743195814
 30
0.0
 11
-62.94093552883627
 21
-45.32042846082545
 31
0.0
  0
LINE
  5
A163
330
A0ED
100
AcDbEntity
  8
0
100
AcDbLine
 10
-34.65666428137435
 20
77.15405867833343
 30
0.0
 11
-4.958179471539363
 21
94.30048687781567
 31
0.0
  0
LINE
  5
A164
330
A0ED
100
AcDbEntity
  8
0
100
AcDbLine
 10
-64.35514909120936
 20
-44.50393187989774
 30
0.0
 11
-64.35514909120936
 21
-54.30189085103041
 31
0.0
  0
LINE
  5
A165
330
A0ED
100
AcDbEntity
  8
0
100
AcDbLine
 10
-6.37239303391246
 20
95.11698345874339
 30
0.0
 11
-36.07087784374744
 21
77.97055525926116
 31
0.0
  0
LINE
  5
A166
330
A0ED
100
AcDbEntity
  8
0
100
AcDbLine
 10
-4.958179471539359
 20
97.56647320152659
 30
0.0
 11
-31.4746837660349
 21
112.8757840939214
 31
0.0
  0
LINE
  5
A167
330
A0ED
100
AcDbEntity
  8
0
100
AcDbLine
 10
-31.4746837660349
 20
112.8757840939214
 30
0.0
 11
-32.88889732840801
 21
112.0592875129937
 31
0.0
  0
ELLIPSE
  5
A168
330
A0ED
100
AcDbEntity
  8
0
100
AcDbEllipse
 10
35.70046044668712
 20
-51.24002867255149
 30
0.0
 11
1.249999999999871
 21
2.16506350946117
 31
0.0
210
0.0
220
0.0
230
1.0
 40
0.577350269189626
 41
3.742856870268578
 42
5.681921090500116
  0
ELLIPSE
  5
A169
330
A0ED
100
AcDbEntity
  8
0
100
AcDbEllipse
 10
37.11467400906022
 20
-52.05652525347921
 30
0.0
 11
-1.25
 21
-2.165063509461096
 31
0.0
210
0.0
220
0.0
230
0.9999999999999998
 40
0.577350269189626
 41
0.0
 42
6.283185307179586
  0
ELLIPSE
  5
A16A
330
A0ED
100
AcDbEntity
  8
0
100
AcDbEllipse
 10
35.70046044668712
 20
-34.91009705399696
 30
0.0
 11
1.249999999999871
 21
2.16506350946117
 31
0.0
210
0.0
220
0.0
230
1.0
 40
0.577350269189626
 41
3.742856870268578
 42
5.681921090500118
  0
ELLIPSE
  5
A16B
330
A0ED
100
AcDbEntity
  8
0
100
AcDbEllipse
 10
37.11467400906022
 20
-35.72659363492469
 30
0.0
 11
-1.25
 21
-2.165063509461096
 31
0.0
210
0.0
220
0.0
230
0.9999999999999998
 40
0.577350269189626
 41
0.0
 42
6.283185307179586
  0
ELLIPSE
  5
A16C
330
A0ED
100
AcDbEntity
  8
0
100
AcDbEllipse
 10
35.70046044668712
 20
-18.58016543544244
 30
0.0
 11
1.249999999999871
 21
2.16506350946117
 31
0.0
210
0.0
220
0.0
230
1.0
 40
0.577350269189626
 41
3.742856870268578
 42
5.681921090500118
  0
ELLIPSE
  5
A16D
330
A0ED
100
AcDbEntity
  8
0
100
AcDbEllipse
 10
37.11467400906022
 20
-19.39666201637017
 30
0.0
 11
-1.25
 21
-2.165063509461096
 31
0.0
210
0.0
220
0.0
230
0.9999999999999998
 40
0.577350269189626
 41
0.0
 42
6.283185307179586
  0
ELLIPSE
  5
A16E
330
A0ED
100
AcDbEntity
  8
0
100
AcDbEllipse
 10
35.70046044668712
 20
-2.250233816887923
 30
0.0
 11
1.249999999999871
 21
2.16506350946117
 31
0.0
210
0.0
220
0.0
230
1.0
 40
0.577350269189626
 41
3.742856870268578
 42
5.681921090500119
  0
ELLIPSE
  5
A16F
330
A0ED
100
AcDbEntity
  8
0
100
AcDbEllipse
 10
37.11467400906022
 20
-3.066730397815651
 30
0.0
 11
-1.25
 21
-2.165063509461096
 31
0.0
210
0.0
220
0.0
230
0.9999999999999998
 40
0.577350269189626
 41
0.0
 42
6.283185307179586
  0
ELLIPSE
  5
A170
330
A0ED
100
AcDbEntity
  8
0
100
AcDbEllipse
 10
35.70046044668712
 20
14.07969780166659
 30
0.0
 11
1.249999999999871
 21
2.16506350946117
 31
0.0
210
0.0
220
0.0
230
1.0
 40
0.577350269189626
 41
3.742856870268578
 42
5.681921090500118
  0
ELLIPSE
  5
A171
330
A0ED
100
AcDbEntity
  8
0
100
AcDbEllipse
 10
37.11467400906022
 20
13.26320122073887
 30
0.0
 11
-1.25
 21
-2.165063509461096
 31
0.0
210
0.0
220
0.0
230
0.9999999999999998
 40
0.577350269189626
 41
0.0
 42
6.283185307179586
  0
ELLIPSE
  5
A172
330
A0ED
100
AcDbEntity
  8
0
100
AcDbEllipse
 10
-30.76757698484834
 20
-4.699723559671067
 30
0.0
 11
1.249999999999871
 21
2.165063509461171
 31
0.0
210
0.0
220
0.0
230
1.0
 40
0.5773502691896257
 41
3.742856870268578
 42
5.681921090500114
  0
ELLIPSE
  5
A173
330
A0ED
100
AcDbEntity
  8
0
100
AcDbEllipse
 10
-29.35336342247525
 20
-5.516220140598795
 30
0.0
 11
1.249999999999999
 21
2.165063509461096
 31
0.0
210
0.0
220
0.0
230
1.0
 40
0.5773502691896258
 41
0.0
 42
6.283185307179586
  0
ELLIPSE
  5
A174
330
A0ED
100
AcDbEntity
  8
0
100
AcDbEllipse
 10
-30.76757698484834
 20
11.63020805888345
 30
0.0
 11
1.249999999999871
 21
2.165063509461171
 31
0.0
210
0.0
220
0.0
230
1.0
 40
0.5773502691896257
 41
3.742856870268578
 42
5.681921090500113
  0
ELLIPSE
  5
A175
330
A0ED
100
AcDbEntity
  8
0
100
AcDbEllipse
 10
-29.35336342247525
 20
10.81371147795573
 30
0.0
 11
1.249999999999999
 21
2.165063509461096
 31
0.0
210
0.0
220
0.0
230
1.0
 40
0.5773502691896258
 41
0.0
 42
6.283185307179586
  0
ELLIPSE
  5
A176
330
A0ED
100
AcDbEntity
  8
0
100
AcDbEllipse
 10
-30.76757698484834
 20
27.96013967743797
 30
0.0
 11
1.249999999999871
 21
2.165063509461171
 31
0.0
210
0.0
220
0.0
230
1.0
 40
0.5773502691896257
 41
3.742856870268578
 42
5.681921090500114
  0
ELLIPSE
  5
A177
330
A0ED
100
AcDbEntity
  8
0
100
AcDbEllipse
 10
-29.35336342247525
 20
27.14364309651025
 30
0.0
 11
1.249999999999999
 21
2.165063509461096
 31
0.0
210
0.0
220
0.0
230
1.0
 40
0.5773502691896258
 41
0.0
 42
6.283185307179586
  0
ELLIPSE
  5
A178
330
A0ED
100
AcDbEntity
  8
0
100
AcDbEllipse
 10
-30.76757698484834
 20
44.29007129599248
 30
0.0
 11
1.249999999999871
 21
2.165063509461171
 31
0.0
210
0.0
220
0.0
230
1.0
 40
0.5773502691896257
 41
3.742856870268578
 42
5.681921090500118
  0
ELLIPSE
  5
A179
330
A0ED
100
AcDbEntity
  8
0
100
AcDbEllipse
 10
-29.35336342247525
 20
43.47357471506476
 30
0.0
 11
1.249999999999999
 21
2.165063509461096
 31
0.0
210
0.0
220
0.0
230
1.0
 40
0.5773502691896258
 41
0.0
 42
6.283185307179586
  0
ELLIPSE
  5
A17A
330
A0ED
100
AcDbEntity
  8
0
100
AcDbEllipse
 10
-30.76757698484834
 20
60.62000291454701
 30
0.0
 11
1.249999999999871
 21
2.165063509461171
 31
0.0
210
0.0
220
0.0
230
1.0
 40
0.5773502691896257
 41
3.742856870268578
 42
5.681921090500118
  0
ELLIPSE
  5
A17B
330
A0ED
100
AcDbEntity
  8
0
100
AcDbEllipse
 10
-29.35336342247525
 20
59.80350633361929
 30
0.0
 11
1.249999999999999
 21
2.165063509461096
 31
0.0
210
0.0
220
0.0
230
1.0
 40
0.5773502691896258
 41
0.0
 42
6.283185307179586
  0
ELLIPSE
  5
A17C
330
A0ED
100
AcDbEntity
  8
0
100
AcDbEllipse
 10
-30.76757698484834
 20
76.94993453310151
 30
0.0
 11
1.249999999999871
 21
2.165063509461171
 31
0.0
210
0.0
220
0.0
230
1.0
 40
0.5773502691896257
 41
3.742856870268578
 42
5.681921090500118
  0
ELLIPSE
  5
A17D
330
A0ED
100
AcDbEntity
  8
0
100
AcDbEllipse
 10
-29.35336342247525
 20
76.13343795217379
 30
0.0
 11
1.249999999999999
 21
2.165063509461096
 31
0.0
210
0.0
220
0.0
230
1.0
 40
0.5773502691896258
 41
0.0
 42
6.283185307179586
  0
ENDBLK
  5
A0EF
330
A0ED
100
AcDbEntity
  8
0
100
AcDbBlockEnd
  0
ENDSEC
  0
SECTION
  2
ENTITIES
  0
INSERT
  5
A17E
330
1F
100
AcDbEntity
  8
0
100
AcDbBlockReference
  2
SAE380_92_2-Front
 10
0.0
 20
0.0
 30
0.0
  0
INSERT
  5
A17F
330
1F
100
AcDbEntity
  8
0
100
AcDbBlockReference
  2
SAE380_92_2-Left
 10
131.3
 20
0.0
 30
0.0
  0
INSERT
  5
A180
330
1F
100
AcDbEntity
  8
0
100
AcDbBlockReference
  2
SAE380_92_2-Right
 10
-131.3
 20
0.0
 30
0.0
  0
INSERT
  5
A181
330
1F
100
AcDbEntity
  8
0
100
AcDbBlockReference
  2
SAE380_92_2-Top
 10
0.0
 20
-45.8
 30
0.0
  0
INSERT
  5
A182
330
1F
100
AcDbEntity
  8
0
100
AcDbBlockReference
  2
SAE380_92_2-Bottom
 10
0.0
 20
187.8
 30
0.0
  0
INSERT
  5
A183
330
1F
100
AcDbEntity
  8
0
100
AcDbBlockReference
  2
SAE380_92_2-ISO
 10
195.6551490912095
 20
-158.6757840939214
 30
0.0
  0
MTEXT
  5
A184
330
1F
100
AcDbEntity
  8
0
100
AcDbMText
 10
0.0
 20
-175.6
 30
0.0
 40
14.6
 41
0.0
 71
     5
 72
     5
  1
SAE380/92/2
 73
     1
 44
1.0
1001
ACAD
1000
MTEXTBEGIN
1070
    73
1070
     1
1070
    44
1040
1.0
1070
    74
1070
     0
1000
MTEXTEND
  0
ENDSEC
  0
SECTION
  2
OBJECTS
  0
DICTIONARY
  5
C
330
0
100
AcDbDictionary
281
     1
  3
ACAD_CIP_PREVIOUS_PRODUCT_INFO
350
216
  3
ACAD_COLOR
350
6B
  3
ACAD_DETAILVIEWSTYLE
350
21B
  3
ACAD_GROUP
350
D
  3
ACAD_LAYOUT
350
1A
  3
ACAD_MATERIAL
350
6A
  3
ACAD_MLEADERSTYLE
350
12D
  3
ACAD_MLINESTYLE
350
17
  3
ACAD_PLOTSETTINGS
350
19
  3
ACAD_PLOTSTYLENAME
350
E
  3
ACAD_SCALELIST
350
10C
  3
ACAD_SECTIONVIEWSTYLE
350
219
  3
ACAD_TABLESTYLE
350
7E
  3
ACAD_VISUALSTYLE
350
EF
  3
ACDB_RECOMPOSE_DATA
350
A285
  3
AcDbVariableDictionary
350
5E
  3
DWGPROPS
350
A286
  0
DICTIONARY
  5
A1D5
330
8
100
AcDbDictionary
280
     1
281
     1
  0
DICTIONARY
  5
1FF
330
2
100
AcDbDictionary
280
     1
281
     1
  3
ACAD_LAYERSTATES
360
200
  0
DICTIONARY
  5
13C
330
10
100
AcDbDictionary
280
     1
281
     1
  0
DICTIONARY
  5
1CE
330
1F
100
AcDbDictionary
280
     1
281
     1
  3
ACAD_LAYOUTSELFREF
360
A1DD
  0
DICTIONARY
  5
A188
330
D2
100
AcDbDictionary
280
     1
281
     1
  3
ACAD_LAYOUTSELFREF
360
A1E6
  0
DICTIONARY
  5
A18A
330
D6
100
AcDbDictionary
280
     1
281
     1
  3
ACAD_LAYOUTSELFREF
360
A1E9
  0
XRECORD
  5
216
102
{ACAD_REACTORS
330
C
102
}
330
C
100
AcDbXrecord
280
     1
300
ACD
300
2021
300
87393ACD_2021_0F
  0
DICTIONARY
  5
6B
102
{ACAD_REACTORS
330
C
102
}
330
C
100
AcDbDictionary
281
     1
  0
DICTIONARY
  5
21B
102
{ACAD_REACTORS
330
C
102
}
330
C
100
AcDbDictionary
281
     1
  3
Metric50
350
21C
  0
DICTIONARY
  5
D
102
{ACAD_REACTORS
330
C
102
}
330
C
100
AcDbDictionary
281
     1
  0
DICTIONARY
  5
1A
102
{ACAD_REACTORS
330
C
102
}
330
C
100
AcDbDictionary
281
     1
  3
Layout1
350
D3
  3
Layout2
350
D7
  3
Model
350
22
  0
DICTIONARY
  5
6A
102
{ACAD_REACTORS
330
C
102
}
330
C
100
AcDbDictionary
281
     1
  3
ByBlock
350
ED
  3
ByLayer
350
EC
  3
Global
350
EE
  0
DICTIONARY
  5
12D
102
{ACAD_REACTORS
330
C
102
}
330
C
100
AcDbDictionary
281
     1
  3
Standard
350
12E
  0
DICTIONARY
  5
17
102
{ACAD_REACTORS
330
C
102
}
330
C
100
AcDbDictionary
281
     1
  3
Standard
350
18
  0
DICTIONARY
  5
19
102
{ACAD_REACTORS
330
C
102
}
330
C
100
AcDbDictionary
281
     1
  0
ACDBDICTIONARYWDFLT
  5
E
102
{ACAD_REACTORS
330
C
102
}
330
C
100
AcDbDictionary
281
     1
  3
Normal
350
F
100
AcDbDictionaryWithDefault
340
F
  0
DICTIONARY
  5
10C
102
{ACAD_REACTORS
330
C
102
}
330
C
100
AcDbDictionary
281
     1
  3
A0
350
10D
  3
A1
350
1BE
  3
A2
350
1BF
  3
A3
350
1C0
  3
A4
350
1C1
  3
A5
350
1C2
  3
A6
350
1C3
  3
A7
350
1C4
  3
A8
350
1C5
  3
A9
350
1C6
  3
B0
350
1C7
  3
B1
350
1C8
  3
B2
350
1C9
  3
B3
350
1CA
  3
B4
350
1CB
  3
B5
350
1CC
  3
B6
350
1CD
  0
DICTIONARY
  5
219
102
{ACAD_REACTORS
330
C
102
}
330
C
100
AcDbDictionary
281
     1
  3
Metric50
350
21A
  0
DICTIONARY
  5
7E
102
{ACAD_REACTORS
330
C
102
}
330
C
100
AcDbDictionary
281
     1
  3
Standard
350
7F
  0
DICTIONARY
  5
EF
102
{ACAD_REACTORS
330
C
102
}
330
C
100
AcDbDictionary
281
     1
  3
2dWireframe
350
F5
  3
Basic
350
F4
  3
Brighten
350
FB
  3
ColorChange
350
FF
  3
Conceptual
350
F8
  3
Dim
350
FA
  3
EdgeColorOff
350
1E6
  3
Facepattern
350
FE
  3
Flat
350
F0
  3
FlatWithEdges
350
F1
  3
Gouraud
350
F2
  3
GouraudWithEdges
350
F3
  3
Hidden
350
F7
  3
JitterOff
350
1E4
  3
Linepattern
350
FD
  3
OverhangOff
350
1E5
  3
Realistic
350
F9
  3
Shaded
350
1F3
  3
Shaded with edges
350
1F2
  3
Shades of Gray
350
1EF
  3
Sketchy
350
1F0
  3
Thicken
350
FC
  3
Wireframe
350
F6
  3
X-Ray
350
1F1
  0
XRECORD
  5
A285
102
{ACAD_REACTORS
330
C
102
}
330
C
100
AcDbXrecord
280
     1
 90
        1
330
7F
  0
DICTIONARY
  5
5E
102
{ACAD_REACTORS
330
C
102
}
330
C
100
AcDbDictionary
281
     1
  3
CANNOSCALE
350
146
  3
CENTEREXE
350
259
  3
CENTERLTYPEFILE
350
25A
  3
CMLEADERSTYLE
350
145
  3
CTABLESTYLE
350
84
  3
CVIEWDETAILSTYLE
350
227
  3
CVIEWSECTIONSTYLE
350
228
  3
DIMASSOC
350
5F
  3
HIDETEXT
350
63
  3
INDEXCTL
350
A232
  3
LAYEREVAL
350
1AE
  3
LAYERNOTIFY
350
1AF
  3
LIGHTINGUNITS
350
A230
  3
MSLTSCALE
350
A22F
  3
PSOLHEIGHT
350
A282
  3
PSOLWIDTH
350
A281
  3
SORTENTS
350
A231
  3
XCLIPFRAME
350
A283
  0
XRECORD
  5
A286
102
{ACAD_REACTORS
330
C
102
}
330
C
100
AcDbXrecord
280
     1
  1
DWGPROPS COOKIE
  2

  3

  4

  6

  7

  8
truole
  9

300
=
301
=
302
=
303
=
304
=
305
=
306
=
307
=
308
=
309
=
 40
0.0078472222222222
 41
2460398.356956019
 42
2460398.375277778
  1

 90
        0
  0
DICTIONARY
  5
200
102
{ACAD_REACTORS
330
1FF
102
}
330
1FF
100
AcDbDictionary
281
     1
  0
XRECORD
  5
A1DD
102
{ACAD_REACTORS
330
1CE
102
}
330
1CE
100
AcDbXrecord
280
     1
340
1F
  0
XRECORD
  5
A1E6
102
{ACAD_REACTORS
330
A188
102
}
330
A188
100
AcDbXrecord
280
     1
340
D2
  0
XRECORD
  5
A1E9
102
{ACAD_REACTORS
330
A18A
102
}
330
A18A
100
AcDbXrecord
280
     1
340
D6
  0
ACDBDETAILVIEWSTYLE
  5
21C
102
{ACAD_XDICTIONARY
360
A2C5
102
}
102
{ACAD_REACTORS
330
21B
102
}
330
21B
100
AcDbModelDocViewStyle
 70
     0
  3
Metric50
290
     0
100
AcDbDetailViewStyle
 70
     0
 71
     0
 90
        3
 71
     1
340
11
 40
5.0
340
0
 40
5.0
300

 40
0.0
280
     1
 71
     2
340
16
 90
       25
 71
     3
340
11
 40
5.0
 90
        0
 40
15.0
 90
        1
300
%<\AcVar ViewDetailId>% (%<\AcVar ViewScale \f "%sn">%)
 71
     4
340
16
 90
       25
340
16
 90
       25
280
     0
  0
LAYOUT
  5
D3
102
{ACAD_XDICTIONARY
360
A28A
102
}
102
{ACAD_REACTORS
330
1A
102
}
330
1A
100
AcDbPlotSettings
  1

  2
C:\Documents and Settings\basas\Application Data\Autodesk\AutoCAD 2005\R16.1\enu\plotters\Default Windows System Printer.pc3
  4

  6

 40
0.0
 41
0.0
 42
0.0
 43
0.0
 44
0.0
 45
0.0
 46
0.0
 47
0.0
 48
0.0
 49
0.0
140
0.0
141
0.0
142
1.0
143
1.0
 70
   688
 72
     0
 73
     0
 74
     5
  7

 75
    16
147
1.0
148
0.0
149
0.0
100
AcDbLayout
  1
Layout1
 70
     1
 71
     1
 10
0.0
 20
0.0
 11
12.0
 21
9.0
 12
0.0
 22
0.0
 32
0.0
 14
0.0
 24
0.0
 34
0.0
 15
0.0
 25
0.0
 35
0.0
146
0.0
 13
0.0
 23
0.0
 33
0.0
 16
1.0
 26
0.0
 36
0.0
 17
0.0
 27
1.0
 37
0.0
 76
     0
330
D2
  0
LAYOUT
  5
D7
102
{ACAD_XDICTIONARY
360
A28C
102
}
102
{ACAD_REACTORS
330
1A
102
}
330
1A
100
AcDbPlotSettings
  1

  2
C:\Documents and Settings\basas\Application Data\Autodesk\AutoCAD 2005\R16.1\enu\plotters\Default Windows System Printer.pc3
  4

  6

 40
0.0
 41
0.0
 42
0.0
 43
0.0
 44
0.0
 45
0.0
 46
0.0
 47
0.0
 48
0.0
 49
0.0
140
0.0
141
0.0
142
1.0
143
1.0
 70
   688
 72
     0
 73
     0
 74
     5
  7

 75
    16
147
1.0
148
0.0
149
0.0
100
AcDbLayout
  1
Layout2
 70
     1
 71
     2
 10
0.0
 20
0.0
 11
12.0
 21
9.0
 12
0.0
 22
0.0
 32
0.0
 14
0.0
 24
0.0
 34
0.0
 15
0.0
 25
0.0
 35
0.0
146
0.0
 13
0.0
 23
0.0
 33
0.0
 16
1.0
 26
0.0
 36
0.0
 17
0.0
 27
1.0
 37
0.0
 76
     0
330
D6
  0
LAYOUT
  5
22
102
{ACAD_XDICTIONARY
360
A287
102
}
102
{ACAD_REACTORS
330
1A
102
}
330
1A
100
AcDbPlotSettings
  1

  2
none_device
  4
ISO_A4_(210.00_x_297.00_MM)
  6

 40
7.5
 41
20.0
 42
7.5
 43
20.0
 44
210.0
 45
297.0
 46
11.54999923706054
 47
-13.65000009536743
 48
0.0
 49
0.0
140
0.0
141
0.0
142
1.0
143
8.704084754739808
 70
 11952
 72
     1
 73
     0
 74
     0
  7

 75
     0
147
0.1148885871608098
148
0.0
149
0.0
100
AcDbLayout
  1
Model
 70
     1
 71
     0
 10
0.0
 20
0.0
 11
12.0
 21
9.0
 12
0.0
 22
0.0
 32
0.0
 14
0.0
 24
0.0
 34
0.0
 15
0.0
 25
0.0
 35
0.0
146
0.0
 13
0.0
 23
0.0
 33
0.0
 16
1.0
 26
0.0
 36
0.0
 17
0.0
 27
1.0
 37
0.0
 76
     0
330
1F
331
EA
1001
ACAD_PSEXT
1000
None
1000
None
1000
Not applicable
1000
The layout will not be plotted unless a new plotter configuration name is selected.
1070
     0
  0
MATERIAL
  5
ED
102
{ACAD_XDICTIONARY
360
1F9
102
}
102
{ACAD_REACTORS
330
6A
102
}
330
6A
100
AcDbMaterial
  1
ByBlock
  0
MATERIAL
  5
EC
102
{ACAD_XDICTIONARY
360
1F7
102
}
102
{ACAD_REACTORS
330
6A
102
}
330
6A
100
AcDbMaterial
  1
ByLayer
  0
MATERIAL
  5
EE
102
{ACAD_XDICTIONARY
360
173
102
}
102
{ACAD_REACTORS
330
6A
102
}
330
6A
100
AcDbMaterial
  1
Global
 43
0.0007999999797903
 43
0.0
 43
0.0
 43
0.0
 43
0.0
 43
0.0007999999797903
 43
0.0
 43
0.0
 43
0.0
 43
0.0
 43
1.0
 43
0.0
 43
0.0
 43
0.0
 43
0.0
 43
1.0
 49
0.0007999999797903
 49
0.0
 49
0.0
 49
0.0
 49
0.0
 49
0.0007999999797903
 49
0.0
 49
0.0
 49
0.0
 49
0.0
 49
1.0
 49
0.0
 49
0.0
 49
0.0
 49
0.0
 49
1.0
142
0.0007999999797903
142
0.0
142
0.0
142
0.0
142
0.0
142
0.0007999999797903
142
0.0
142
0.0
142
0.0
142
0.0
142
1.0
142
0.0
142
0.0
142
0.0
142
0.0
142
1.0
144
0.0007999999797903
144
0.0
144
0.0
144
0.0
144
0.0
144
0.0007999999797903
144
0.0
144
0.0
144
0.0
144
0.0
144
1.0
144
0.0
144
0.0
144
0.0
144
0.0
144
1.0
1001
ACAD
1070
    -1
1070
     3
1070
     0
1000

1071
        0
1070
     0
  0
MLEADERSTYLE
  5
12E
102
{ACAD_XDICTIONARY
360
A2B1
102
}
102
{ACAD_REACTORS
330
12D
102
}
330
12D
100
AcDbMLeaderStyle
170
     2
171
     1
172
     0
 90
        2
 40
0.0
 41
0.0
173
     1
 91
-1056964608
340
14
 92
       -2
290
     1
 42
2.0
291
     1
 43
8.0
  3
Standard
 44
4.0
300

342
11
174
     1
178
     1
175
     1
176
     0
 93
-1056964608
 45
4.0
292
     0
297
     0
 46
4.0
 94
-1056964608
 47
1.0
 49
1.0
140
1.0
293
     1
141
0.0
294
     1
177
     0
142
1.0
295
     0
296
     0
143
3.75
1001
ACAD_MLEADERVER
1070
     2
  0
MLINESTYLE
  5
18
102
{ACAD_REACTORS
330
17
102
}
330
17
100
AcDbMlineStyle
  2
STANDARD
 70
     0
  3

 62
   256
 51
90.0
 52
90.0
 71
     2
 49
0.5
 62
   256
  6
BYLAYER
 49
-0.5
 62
   256
  6
BYLAYER
  0
ACDBPLACEHOLDER
  5
F
102
{ACAD_REACTORS
330
E
102
}
330
E
  0
SCALE
  5
10D
102
{ACAD_REACTORS
330
10C
102
}
330
10C
100
AcDbScale
 70
     0
300
1:1
140
1.0
141
1.0
290
     1
  0
SCALE
  5
1BE
102
{ACAD_REACTORS
330
10C
102
}
330
10C
100
AcDbScale
 70
     0
300
1:2
140
1.0
141
2.0
290
     0
  0
SCALE
  5
1BF
102
{ACAD_REACTORS
330
10C
102
}
330
10C
100
AcDbScale
 70
     0
300
1:4
140
1.0
141
4.0
290
     0
  0
SCALE
  5
1C0
102
{ACAD_REACTORS
330
10C
102
}
330
10C
100
AcDbScale
 70
     0
300
1:5
140
1.0
141
5.0
290
     0
  0
SCALE
  5
1C1
102
{ACAD_REACTORS
330
10C
102
}
330
10C
100
AcDbScale
 70
     0
300
1:8
140
1.0
141
8.0
290
     0
  0
SCALE
  5
1C2
102
{ACAD_REACTORS
330
10C
102
}
330
10C
100
AcDbScale
 70
     0
300
1:10
140
1.0
141
10.0
290
     0
  0
SCALE
  5
1C3
102
{ACAD_REACTORS
330
10C
102
}
330
10C
100
AcDbScale
 70
     0
300
1:16
140
1.0
141
16.0
290
     0
  0
SCALE
  5
1C4
102
{ACAD_REACTORS
330
10C
102
}
330
10C
100
AcDbScale
 70
     0
300
1:20
140
1.0
141
20.0
290
     0
  0
SCALE
  5
1C5
102
{ACAD_REACTORS
330
10C
102
}
330
10C
100
AcDbScale
 70
     0
300
1:30
140
1.0
141
30.0
290
     0
  0
SCALE
  5
1C6
102
{ACAD_REACTORS
330
10C
102
}
330
10C
100
AcDbScale
 70
     0
300
1:40
140
1.0
141
40.0
290
     0
  0
SCALE
  5
1C7
102
{ACAD_REACTORS
330
10C
102
}
330
10C
100
AcDbScale
 70
     0
300
1:50
140
1.0
141
50.0
290
     0
  0
SCALE
  5
1C8
102
{ACAD_REACTORS
330
10C
102
}
330
10C
100
AcDbScale
 70
     0
300
1:100
140
1.0
141
100.0
290
     0
  0
SCALE
  5
1C9
102
{ACAD_REACTORS
330
10C
102
}
330
10C
100
AcDbScale
 70
     0
300
2:1
140
2.0
141
1.0
290
     0
  0
SCALE
  5
1CA
102
{ACAD_REACTORS
330
10C
102
}
330
10C
100
AcDbScale
 70
     0
300
4:1
140
4.0
141
1.0
290
     0
  0
SCALE
  5
1CB
102
{ACAD_REACTORS
330
10C
102
}
330
10C
100
AcDbScale
 70
     0
300
8:1
140
8.0
141
1.0
290
     0
  0
SCALE
  5
1CC
102
{ACAD_REACTORS
330
10C
102
}
330
10C
100
AcDbScale
 70
     0
300
10:1
140
10.0
141
1.0
290
     0
  0
SCALE
  5
1CD
102
{ACAD_REACTORS
330
10C
102
}
330
10C
100
AcDbScale
 70
     0
300
100:1
140
100.0
141
1.0
290
     0
  0
ACDBSECTIONVIEWSTYLE
  5
21A
102
{ACAD_XDICTIONARY
360
A2C3
102
}
102
{ACAD_REACTORS
330
219
102
}
330
219
100
AcDbModelDocViewStyle
 70
     0
  3
Metric50
290
     0
100
AcDbSectionViewStyle
 70
     0
 71
     0
 90
      102
 71
     1
340
11
 40
5.0
340
0
340
0
 40
5.0
300
I, O, Q, S, X, Z
 40
10.0
 90
        0
 40
2.5
 90
        0
 71
     2
340
16
 90
       25
340
16
 90
       50
 40
5.0
 40
2.5
 40
5.0
 71
     3
340
11
 40
5.0
 90
        0
 40
15.0
 90
        1
300
%<\AcVar ViewSectionStartId>%-%<\AcVar ViewSectionEndId>% (%<\AcVar ViewScale \f "%sn">%)
 71
     4
300
ANSI31
 40
1.0
 90
        0
290
     0
290
     0
 90
        6
 40
0.0
 40
1.570796326794896
 40
0.2617993877991494
 40
1.308996938995747
 40
-0.2617993877991494
 40
1.832595714594046
  0
TABLESTYLE
  5
7F
102
{ACAD_XDICTIONARY
360
162
102
}
102
{ACAD_REACTORS
330
7E
102
}
330
7E
100
AcDbTableStyle
  3
Standard
 70
     0
 71
     0
 40
1.5
 41
1.5
280
     0
281
     0
  7
Standard
140
4.5
170
     2
 62
     0
 63
     7
283
     0
274
    -2
284
     1
 64
     0
275
    -2
285
     1
 65
     0
276
    -2
286
     1
 66
     0
277
    -2
287
     1
 67
     0
278
    -2
288
     1
 68
     0
279
    -2
289
     1
 69
     0
  7
Standard
140
6.0
170
     5
 62
     0
 63
     7
283
     0
274
    -2
284
     1
 64
     0
275
    -2
285
     1
 65
     0
276
    -2
286
     1
 66
     0
277
    -2
287
     1
 67
     0
278
    -2
288
     1
 68
     0
279
    -2
289
     1
 69
     0
  7
Standard
140
4.5
170
     5
 62
     0
 63
     7
283
     0
274
    -2
284
     1
 64
     0
275
    -2
285
     1
 65
     0
276
    -2
286
     1
 66
     0
277
    -2
287
     1
 67
     0
278
    -2
288
     1
 68
     0
279
    -2
289
     1
 69
     0
  0
VISUALSTYLE
  5
F5
102
{ACAD_XDICTIONARY
360
A29B
102
}
102
{ACAD_REACTORS
330
EF
102
}
330
EF
100
AcDbVisualStyle
  2
2dWireframe
 70
     4
 71
     0
 72
     2
 73
     1
 90
        0
 40
-0.6
 41
-30.0
 62
     5
 63
     7
 74
     1
 91
        4
 64
     7
 65
   257
 75
     1
175
     1
 42
1.0
 92
        0
 66
   257
 43
1.0
 76
     1
 77
     6
 78
     2
 67
     7
 79
     5
170
     0
171
     0
290
     0
174
     0
 93
        1
 44
0.0
173
     0
291
     0
 45
0.0
1001
ACAD
1000
AcDbSavedByObjectVersion
1070
     0
  0
VISUALSTYLE
  5
F4
102
{ACAD_XDICTIONARY
360
A299
102
}
102
{ACAD_REACTORS
330
EF
102
}
330
EF
100
AcDbVisualStyle
  2
Basic
 70
     7
 71
     1
 72
     0
 73
     1
 90
        0
 40
-0.6
 41
-30.0
 62
     5
 63
     7
 74
     0
 91
        4
 64
     7
 65
   257
 75
     1
175
     1
 42
1.0
 92
        8
 66
     7
 43
1.0
 76
     1
 77
     6
 78
     2
 67
     7
 79
     5
170
     0
171
     0
290
     0
174
     0
 93
        1
 44
0.0
173
     0
291
     1
 45
0.0
1001
ACAD
1000
AcDbSavedByObjectVersion
1070
     0
  0
VISUALSTYLE
  5
FB
102
{ACAD_XDICTIONARY
360
A2A7
102
}
102
{ACAD_REACTORS
330
EF
102
}
330
EF
100
AcDbVisualStyle
  2
Brighten
 70
    12
 71
     2
 72
     2
 73
     1
 90
        0
 40
-0.6
 41
-30.0
 62
     5
 63
     7
 74
     1
 91
        4
 64
     7
 65
   257
 75
     1
175
     1
 42
1.0
 92
        8
 66
     7
 43
1.0
 76
     1
 77
     6
 78
     2
 67
     7
 79
     5
170
     0
171
     0
290
     0
174
     0
 93
        1
 44
50.0
173
     0
291
     1
 45
0.0
1001
ACAD
1000
AcDbSavedByObjectVersion
1070
     0
  0
VISUALSTYLE
  5
FF
102
{ACAD_XDICTIONARY
360
A2AF
102
}
102
{ACAD_REACTORS
330
EF
102
}
330
EF
100
AcDbVisualStyle
  2
ColorChange
 70
    16
 71
     2
 72
     2
 73
     3
 90
        0
 40
-0.6
 41
-30.0
 62
     5
 63
     8
 74
     1
 91
        4
 64
     7
 65
   257
 75
     1
175
     1
 42
1.0
 92
        8
 66
     8
 43
1.0
 76
     1
 77
     6
 78
     2
 67
     7
 79
     5
170
     0
171
     0
290
     0
174
     0
 93
        1
 44
0.0
173
     0
291
     1
 45
0.0
1001
ACAD
1000
AcDbSavedByObjectVersion
1070
     0
  0
VISUALSTYLE
  5
F8
102
{ACAD_XDICTIONARY
360
A2A1
102
}
102
{ACAD_REACTORS
330
EF
102
}
330
EF
100
AcDbVisualStyle
  2
Conceptual
 70
     9
 71
     3
 72
     2
 73
     1
 90
        0
 40
-0.6
 41
-30.0
 62
     5
 63
     7
 74
     2
 91
        2
 64
     7
 65
   257
 75
     1
175
     1
 42
40.0
 92
        8
 66
     7
 43
1.0
 76
     1
 77
     6
 78
     2
 67
     7
 79
     3
170
     0
171
     0
290
     0
174
     0
 93
        1
 44
0.0
173
     0
291
     0
 45
0.0
1001
ACAD
1000
AcDbSavedByObjectVersion
1070
     0
  0
VISUALSTYLE
  5
FA
102
{ACAD_XDICTIONARY
360
A2A5
102
}
102
{ACAD_REACTORS
330
EF
102
}
330
EF
100
AcDbVisualStyle
  2
Dim
 70
    11
 71
     2
 72
     2
 73
     1
 90
        0
 40
-0.6
 41
-30.0
 62
     5
 63
     7
 74
     1
 91
        4
 64
     7
 65
   257
 75
     1
175
     1
 42
1.0
 92
        8
 66
     7
 43
1.0
 76
     1
 77
     6
 78
     2
 67
     7
 79
     5
170
     0
171
     0
290
     0
174
     0
 93
        1
 44
-50.0
173
     0
291
     1
 45
0.0
1001
ACAD
1000
AcDbSavedByObjectVersion
1070
     0
  0
VISUALSTYLE
  5
1E6
102
{ACAD_XDICTIONARY
360
A2B7
102
}
102
{ACAD_REACTORS
330
EF
102
}
330
EF
100
AcDbVisualStyle
  2
EdgeColorOff
 70
    22
 71
     2
 72
     2
 73
     0
 90
        0
 40
-0.6
 41
-30.0
 62
     5
 63
     7
 74
     1
 91
        4
 64
     7
 65
   257
 75
     1
175
     1
 42
1.0
 92
        8
 66
     7
 43
1.0
 76
     1
 77
     6
 78
     2
 67
     7
 79
     5
170
     0
171
     0
290
     0
174
     0
 93
        1
 44
0.0
173
     0
291
     1
 45
0.0
1001
ACAD
1000
AcDbSavedByObjectVersion
1070
     0
  0
VISUALSTYLE
  5
FE
102
{ACAD_XDICTIONARY
360
A2AD
102
}
102
{ACAD_REACTORS
330
EF
102
}
330
EF
100
AcDbVisualStyle
  2
Facepattern
 70
    15
 71
     2
 72
     2
 73
     1
 90
        0
 40
-0.6
 41
-30.0
 62
     5
 63
     7
 74
     1
 91
        4
 64
     7
 65
   257
 75
     1
175
     1
 42
1.0
 92
        8
 66
     7
 43
1.0
 76
     1
 77
     6
 78
     2
 67
     7
 79
     5
170
     0
171
     0
290
     0
174
     0
 93
        1
 44
0.0
173
     0
291
     1
 45
0.0
1001
ACAD
1000
AcDbSavedByObjectVersion
1070
     0
  0
VISUALSTYLE
  5
F0
102
{ACAD_XDICTIONARY
360
A291
102
}
102
{ACAD_REACTORS
330
EF
102
}
330
EF
100
AcDbVisualStyle
  2
Flat
 70
     0
 71
     2
 72
     1
 73
     1
 90
        2
 40
-0.6
 41
30.0
 62
     5
 63
     7
 74
     0
 91
        0
 64
     7
 65
   257
 75
     1
175
     1
 42
1.0
 92
        8
 66
     7
 43
1.0
 76
     1
 77
     6
 78
     2
 67
     7
 79
     5
170
     0
171
     0
290
     0
174
     0
 93
       13
 44
0.0
173
     0
291
     1
 45
0.0
1001
ACAD
1000
AcDbSavedByObjectVersion
1070
     0
  0
VISUALSTYLE
  5
F1
102
{ACAD_XDICTIONARY
360
A293
102
}
102
{ACAD_REACTORS
330
EF
102
}
330
EF
100
AcDbVisualStyle
  2
FlatWithEdges
 70
     1
 71
     2
 72
     1
 73
     1
 90
        2
 40
-0.6
 41
30.0
 62
     5
 63
     7
 74
     1
 91
        0
 64
     7
 65
   257
 75
     1
175
     1
 42
1.0
 92
        0
 66
   257
 43
1.0
 76
     1
 77
     6
 78
     2
 67
     7
 79
     5
170
     0
171
     0
290
     0
174
     0
 93
       13
 44
0.0
173
     0
291
     1
 45
0.0
1001
ACAD
1000
AcDbSavedByObjectVersion
1070
     0
  0
VISUALSTYLE
  5
F2
102
{ACAD_XDICTIONARY
360
A295
102
}
102
{ACAD_REACTORS
330
EF
102
}
330
EF
100
AcDbVisualStyle
  2
Gouraud
 70
     2
 71
     2
 72
     2
 73
     1
 90
        2
 40
-0.6
 41
30.0
 62
     5
 63
     7
 74
     0
 91
        0
 64
     7
 65
   257
 75
     1
175
     1
 42
1.0
 92
        0
 66
     7
 43
1.0
 76
     1
 77
     6
 78
     2
 67
     7
 79
     5
170
     0
171
     0
290
     0
174
     0
 93
       13
 44
0.0
173
     0
291
     1
 45
0.0
1001
ACAD
1000
AcDbSavedByObjectVersion
1070
     0
  0
VISUALSTYLE
  5
F3
102
{ACAD_XDICTIONARY
360
A297
102
}
102
{ACAD_REACTORS
330
EF
102
}
330
EF
100
AcDbVisualStyle
  2
GouraudWithEdges
 70
     3
 71
     2
 72
     2
 73
     1
 90
        2
 40
-0.6
 41
30.0
 62
     5
 63
     7
 74
     1
 91
        0
 64
     7
 65
   257
 75
     1
175
     1
 42
1.0
 92
        0
 66
   257
 43
1.0
 76
     1
 77
     6
 78
     2
 67
     7
 79
     5
170
     0
171
     0
290
     0
174
     0
 93
       13
 44
0.0
173
     0
291
     1
 45
0.0
1001
ACAD
1000
AcDbSavedByObjectVersion
1070
     0
  0
VISUALSTYLE
  5
F7
102
{ACAD_XDICTIONARY
360
A29F
102
}
102
{ACAD_REACTORS
330
EF
102
}
330
EF
100
AcDbVisualStyle
  2
Hidden
 70
     6
 71
     1
 72
     2
 73
     2
 90
        0
 40
-0.6
 41
-30.0
 62
     5
 63
     7
 74
     2
 91
        2
 64
     7
 65
   257
 75
     2
175
     1
 42
40.0
 92
        0
 66
   257
 43
1.0
 76
     1
 77
     6
 78
     2
 67
     7
 79
     3
170
     0
171
     0
290
     0
174
     0
 93
        1
 44
0.0
173
     0
291
     0
 45
0.0
1001
ACAD
1000
AcDbSavedByObjectVersion
1070
     0
  0
VISUALSTYLE
  5
1E4
102
{ACAD_XDICTIONARY
360
A2B3
102
}
102
{ACAD_REACTORS
330
EF
102
}
330
EF
100
AcDbVisualStyle
  2
JitterOff
 70
    20
 71
     2
 72
     2
 73
     0
 90
        0
 40
-0.6
 41
-30.0
 62
     5
 63
     7
 74
     1
 91
        4
 64
     7
 65
   257
 75
     1
175
     1
 42
1.0
 92
       10
 66
     7
 43
1.0
 76
     1
 77
     6
 78
     2
 67
     7
 79
     5
170
     0
171
     0
290
     0
174
     0
 93
        1
 44
0.0
173
     0
291
     1
 45
0.0
1001
ACAD
1000
AcDbSavedByObjectVersion
1070
     0
  0
VISUALSTYLE
  5
FD
102
{ACAD_XDICTIONARY
360
A2AB
102
}
102
{ACAD_REACTORS
330
EF
102
}
330
EF
100
AcDbVisualStyle
  2
Linepattern
 70
    14
 71
     2
 72
     2
 73
     1
 90
        0
 40
-0.6
 41
-30.0
 62
     5
 63
     7
 74
     1
 91
        4
 64
     7
 65
   257
 75
     7
175
     7
 42
1.0
 92
        8
 66
     7
 43
1.0
 76
     1
 77
     6
 78
     2
 67
     7
 79
     5
170
     0
171
     0
290
     0
174
     0
 93
        1
 44
0.0
173
     0
291
     1
 45
0.0
1001
ACAD
1000
AcDbSavedByObjectVersion
1070
     0
  0
VISUALSTYLE
  5
1E5
102
{ACAD_XDICTIONARY
360
A2B5
102
}
102
{ACAD_REACTORS
330
EF
102
}
330
EF
100
AcDbVisualStyle
  2
OverhangOff
 70
    21
 71
     2
 72
     2
 73
     0
 90
        0
 40
-0.6
 41
-30.0
 62
     5
 63
     7
 74
     1
 91
        4
 64
     7
 65
   257
 75
     1
175
     1
 42
1.0
 92
        9
 66
     7
 43
1.0
 76
     1
 77
     6
 78
     2
 67
     7
 79
     5
170
     0
171
     0
290
     0
174
     0
 93
        1
 44
0.0
173
     0
291
     1
 45
0.0
1001
ACAD
1000
AcDbSavedByObjectVersion
1070
     0
  0
VISUALSTYLE
  5
F9
102
{ACAD_XDICTIONARY
360
A2A3
102
}
102
{ACAD_REACTORS
330
EF
102
}
330
EF
100
AcDbVisualStyle
  2
Realistic
 70
     8
 71
     2
 72
     2
 73
     0
 90
        2
 40
-0.6
 41
30.0
 62
     5
 63
     7
 74
     0
 91
        0
 64
     7
 65
   257
 75
     1
175
     1
 42
1.0
 92
        8
 66
   257
 43
1.0
 76
     1
 77
     6
 78
     2
 67
     7
 79
     3
170
     0
171
     0
290
     0
174
     0
 93
       13
 44
0.0
173
     0
291
     0
 45
0.0
1001
ACAD
1000
AcDbSavedByObjectVersion
1070
     0
  0
VISUALSTYLE
  5
1F3
102
{ACAD_XDICTIONARY
360
A2C1
102
}
102
{ACAD_REACTORS
330
EF
102
}
330
EF
100
AcDbVisualStyle
  2
Shaded
 70
    27
 71
     2
 72
     2
 73
     1
 90
        2
 40
-0.6
 41
30.0
 62
     5
 63
     7
 74
     0
 91
        4
 64
     7
 65
   257
 75
     1
175
     1
 42
1.0
 92
        8
 66
   257
 43
1.0
 76
     1
 77
     6
 78
     2
 67
     8
 79
     3
170
     0
171
     0
290
     0
174
     0
 93
        5
 44
0.0
173
     0
291
     0
 45
0.0
1001
ACAD
1000
AcDbSavedByObjectVersion
1070
     0
  0
VISUALSTYLE
  5
1F2
102
{ACAD_XDICTIONARY
360
A2BF
102
}
102
{ACAD_REACTORS
330
EF
102
}
330
EF
100
AcDbVisualStyle
  2
Shaded with edges
 70
    26
 71
     2
 72
     2
 73
     1
 90
        2
 40
-0.6
 41
30.0
 62
     5
 63
     7
 74
     1
 91
        2
 64
     7
 65
   257
 75
     2
175
     1
 42
1.0
 92
        8
 66
   257
 43
1.0
 76
     1
 77
     6
 78
     2
 67
     7
 79
     3
170
     0
171
     0
290
     0
174
     0
 93
        5
 44
0.0
173
     0
291
     0
 45
0.0
1001
ACAD
1000
AcDbSavedByObjectVersion
1070
     0
  0
VISUALSTYLE
  5
1EF
102
{ACAD_XDICTIONARY
360
A2B9
102
}
102
{ACAD_REACTORS
330
EF
102
}
330
EF
100
AcDbVisualStyle
  2
Shades of Gray
 70
    23
 71
     2
 72
     2
 73
     3
 90
        0
 40
-0.6
 41
-30.0
 62
     5
 63
     7
 74
     2
 91
        2
 64
     7
 65
     7
 75
     1
175
     1
 42
40.0
 92
        8
 66
     7
 43
1.0
 76
     1
 77
     6
 78
     2
 67
     7
 79
     3
170
     0
171
     0
290
     0
174
     0
 93
        1
 44
0.0
173
     0
291
     0
 45
0.0
1001
ACAD
1000
AcDbSavedByObjectVersion
1070
     0
  0
VISUALSTYLE
  5
1F0
102
{ACAD_XDICTIONARY
360
A2BB
102
}
102
{ACAD_REACTORS
330
EF
102
}
330
EF
100
AcDbVisualStyle
  2
Sketchy
 70
    24
 71
     1
 72
     2
 73
     2
 90
        0
 40
-0.6
 41
-30.0
 62
     5
 63
     7
 74
     2
 91
        2
 64
     7
 65
     7
 75
     1
175
     1
 42
40.0
 92
       11
 66
     7
 43
1.0
 76
     1
 77
     6
 78
     2
 67
     7
 79
     6
170
     0
171
     0
290
     0
174
     0
 93
        1
 44
0.0
173
     0
291
     0
 45
0.0
1001
ACAD
1000
AcDbSavedByObjectVersion
1070
     0
  0
VISUALSTYLE
  5
FC
102
{ACAD_XDICTIONARY
360
A2A9
102
}
102
{ACAD_REACTORS
330
EF
102
}
330
EF
100
AcDbVisualStyle
  2
Thicken
 70
    13
 71
     2
 72
     2
 73
     1
 90
        0
 40
-0.6
 41
-30.0
 62
     5
 63
     7
 74
     1
 91
        4
 64
     7
 65
   257
 75
     1
175
     1
 42
1.0
 92
       12
 66
     7
 43
1.0
 76
     1
 77
     6
 78
     2
 67
     7
 79
     5
170
     0
171
     0
290
     0
174
     0
 93
        1
 44
0.0
173
     0
291
     1
 45
0.0
1001
ACAD
1000
AcDbSavedByObjectVersion
1070
     0
  0
VISUALSTYLE
  5
F6
102
{ACAD_XDICTIONARY
360
A29D
102
}
102
{ACAD_REACTORS
330
EF
102
}
330
EF
100
AcDbVisualStyle
  2
Wireframe
 70
     5
 71
     0
 72
     2
 73
     0
 90
        0
 40
-0.6
 41
-30.0
 62
     5
 63
     7
 74
     1
 91
        4
 64
     7
 65
   257
 75
     1
175
     1
 42
1.0
 92
        0
 66
   257
 43
1.0
 76
     1
 77
     6
 78
     2
 67
     7
 79
     3
170
     0
171
     0
290
     0
174
     0
 93
        1
 44
0.0
173
     0
291
     0
 45
0.0
1001
ACAD
1000
AcDbSavedByObjectVersion
1070
     0
  0
VISUALSTYLE
  5
1F1
102
{ACAD_XDICTIONARY
360
A2BD
102
}
102
{ACAD_REACTORS
330
EF
102
}
330
EF
100
AcDbVisualStyle
  2
X-Ray
 70
    25
 71
     2
 72
     2
 73
     1
 90
        1
 40
0.5
 41
-30.0
 62
     5
 63
     7
 74
     1
 91
        0
 64
     7
 65
   257
 75
     1
175
     1
 42
1.0
 92
        8
 66
     7
 43
1.0
 76
     1
 77
     6
 78
     2
 67
     7
 79
     3
170
     0
171
     0
290
     0
174
     0
 93
       13
 44
0.0
173
     0
291
     0
 45
0.0
1001
ACAD
1000
AcDbSavedByObjectVersion
1070
     0
  0
DICTIONARYVAR
  5
146
102
{ACAD_REACTORS
330
5E
102
}
330
5E
100
DictionaryVariables
280
     0
  1
1:1
  0
DICTIONARYVAR
  5
259
102
{ACAD_REACTORS
330
5E
102
}
330
5E
100
DictionaryVariables
280
     0
  1
3.500000
  0
DICTIONARYVAR
  5
25A
102
{ACAD_REACTORS
330
5E
102
}
330
5E
100
DictionaryVariables
280
     0
  1
acadiso.lin
  0
DICTIONARYVAR
  5
145
102
{ACAD_REACTORS
330
5E
102
}
330
5E
100
DictionaryVariables
280
     0
  1
STANDARD
  0
DICTIONARYVAR
  5
84
102
{ACAD_REACTORS
330
5E
102
}
330
5E
100
DictionaryVariables
280
     0
  1
STANDARD
  0
DICTIONARYVAR
  5
227
102
{ACAD_REACTORS
330
5E
102
}
330
5E
100
DictionaryVariables
280
     0
  1
Metric50
  0
DICTIONARYVAR
  5
228
102
{ACAD_REACTORS
330
5E
102
}
330
5E
100
DictionaryVariables
280
     0
  1
Metric50
  0
DICTIONARYVAR
  5
5F
102
{ACAD_REACTORS
330
5E
102
}
330
5E
100
DictionaryVariables
280
     0
  1
2
  0
DICTIONARYVAR
  5
63
102
{ACAD_REACTORS
330
5E
102
}
330
5E
100
DictionaryVariables
280
     0
  1
1
  0
DICTIONARYVAR
  5
A232
102
{ACAD_REACTORS
330
5E
102
}
330
5E
100
DictionaryVariables
280
     0
  1
0
  0
DICTIONARYVAR
  5
1AE
102
{ACAD_REACTORS
330
5E
102
}
330
5E
100
DictionaryVariables
280
     0
  1
0
  0
DICTIONARYVAR
  5
1AF
102
{ACAD_REACTORS
330
5E
102
}
330
5E
100
DictionaryVariables
280
     0
  1
0
  0
DICTIONARYVAR
  5
A230
102
{ACAD_REACTORS
330
5E
102
}
330
5E
100
DictionaryVariables
280
     0
  1
2
  0
DICTIONARYVAR
  5
A22F
102
{ACAD_REACTORS
330
5E
102
}
330
5E
100
DictionaryVariables
280
     0
  1
1
  0
DICTIONARYVAR
  5
A282
102
{ACAD_REACTORS
330
5E
102
}
330
5E
100
DictionaryVariables
280
     0
  1
80.000000
  0
DICTIONARYVAR
  5
A281
102
{ACAD_REACTORS
330
5E
102
}
330
5E
100
DictionaryVariables
280
     0
  1
5.000000
  0
DICTIONARYVAR
  5
A231
102
{ACAD_REACTORS
330
5E
102
}
330
5E
100
DictionaryVariables
280
     0
  1
127
  0
DICTIONARYVAR
  5
A283
102
{ACAD_REACTORS
330
5E
102
}
330
5E
100
DictionaryVariables
280
     0
  1
2
  0
DICTIONARY
  5
A2C5
330
21C
100
AcDbDictionary
280
     1
281
     1
  3
ACAD_XREC_ROUNDTRIP
360
A2C6
  0
DICTIONARY
  5
A28A
330
D3
100
AcDbDictionary
280
     1
281
     1
  3
ACAD_XREC_ROUNDTRIP
360
A28B
  0
DICTIONARY
  5
A28C
330
D7
100
AcDbDictionary
280
     1
281
     1
  3
ACAD_XREC_ROUNDTRIP
360
A28D
  0
DICTIONARY
  5
A287
330
22
100
AcDbDictionary
280
     1
281
     1
  3
ACAD_XREC_ROUNDTRIP
360
A288
  0
DICTIONARY
  5
1F9
330
ED
100
AcDbDictionary
280
     1
281
     1
  3
ACAD_XREC_ROUNDTRIP
360
A28F
  3
FBXASSET
360
1FA
  0
DICTIONARY
  5
1F7
330
EC
100
AcDbDictionary
280
     1
281
     1
  3
ACAD_XREC_ROUNDTRIP
360
A28E
  3
FBXASSET
360
1F8
  0
DICTIONARY
  5
173
330
EE
100
AcDbDictionary
280
     1
281
     1
  3
ACAD_XREC_ROUNDTRIP
360
A290
  3
BUMPTILE
360
175
  3
DIFFUSETILE
360
174
  3
FBXASSET
360
1FB
  3
OPACITYTILE
360
176
  3
REFLECTIONTILE
360
177
  0
DICTIONARY
  5
A2B1
330
12E
100
AcDbDictionary
280
     1
281
     1
  3
ACAD_XREC_ROUNDTRIP
360
A2B2
  0
DICTIONARY
  5
A2C3
330
21A
100
AcDbDictionary
280
     1
281
     1
  3
ACAD_XREC_ROUNDTRIP
360
A2C4
  0
DICTIONARY
  5
162
330
7F
100
AcDbDictionary
280
     1
281
     1
  3
ACAD_ROUNDTRIP_2008_TABLESTYLE_CELLSTYLEMAP
360
A284
  3
ACAD_XREC_ROUNDTRIP
360
A289
  0
DICTIONARY
  5
A29B
330
F5
100
AcDbDictionary
280
     1
281
     1
  3
ACAD_XREC_ROUNDTRIP
360
A29C
  0
DICTIONARY
  5
A299
330
F4
100
AcDbDictionary
280
     1
281
     1
  3
ACAD_XREC_ROUNDTRIP
360
A29A
  0
DICTIONARY
  5
A2A7
330
FB
100
AcDbDictionary
280
     1
281
     1
  3
ACAD_XREC_ROUNDTRIP
360
A2A8
  0
DICTIONARY
  5
A2AF
330
FF
100
AcDbDictionary
280
     1
281
     1
  3
ACAD_XREC_ROUNDTRIP
360
A2B0
  0
DICTIONARY
  5
A2A1
330
F8
100
AcDbDictionary
280
     1
281
     1
  3
ACAD_XREC_ROUNDTRIP
360
A2A2
  0
DICTIONARY
  5
A2A5
330
FA
100
AcDbDictionary
280
     1
281
     1
  3
ACAD_XREC_ROUNDTRIP
360
A2A6
  0
DICTIONARY
  5
A2B7
330
1E6
100
AcDbDictionary
280
     1
281
     1
  3
ACAD_XREC_ROUNDTRIP
360
A2B8
  0
DICTIONARY
  5
A2AD
330
FE
100
AcDbDictionary
280
     1
281
     1
  3
ACAD_XREC_ROUNDTRIP
360
A2AE
  0
DICTIONARY
  5
A291
330
F0
100
AcDbDictionary
280
     1
281
     1
  3
ACAD_XREC_ROUNDTRIP
360
A292
  0
DICTIONARY
  5
A293
330
F1
100
AcDbDictionary
280
     1
281
     1
  3
ACAD_XREC_ROUNDTRIP
360
A294
  0
DICTIONARY
  5
A295
330
F2
100
AcDbDictionary
280
     1
281
     1
  3
ACAD_XREC_ROUNDTRIP
360
A296
  0
DICTIONARY
  5
A297
330
F3
100
AcDbDictionary
280
     1
281
     1
  3
ACAD_XREC_ROUNDTRIP
360
A298
  0
DICTIONARY
  5
A29F
330
F7
100
AcDbDictionary
280
     1
281
     1
  3
ACAD_XREC_ROUNDTRIP
360
A2A0
  0
DICTIONARY
  5
A2B3
330
1E4
100
AcDbDictionary
280
     1
281
     1
  3
ACAD_XREC_ROUNDTRIP
360
A2B4
  0
DICTIONARY
  5
A2AB
330
FD
100
AcDbDictionary
280
     1
281
     1
  3
ACAD_XREC_ROUNDTRIP
360
A2AC
  0
DICTIONARY
  5
A2B5
330
1E5
100
AcDbDictionary
280
     1
281
     1
  3
ACAD_XREC_ROUNDTRIP
360
A2B6
  0
DICTIONARY
  5
A2A3
330
F9
100
AcDbDictionary
280
     1
281
     1
  3
ACAD_XREC_ROUNDTRIP
360
A2A4
  0
DICTIONARY
  5
A2C1
330
1F3
100
AcDbDictionary
280
     1
281
     1
  3
ACAD_XREC_ROUNDTRIP
360
A2C2
  0
DICTIONARY
  5
A2BF
330
1F2
100
AcDbDictionary
280
     1
281
     1
  3
ACAD_XREC_ROUNDTRIP
360
A2C0
  0
DICTIONARY
  5
A2B9
330
1EF
100
AcDbDictionary
280
     1
281
     1
  3
ACAD_XREC_ROUNDTRIP
360
A2BA
  0
DICTIONARY
  5
A2BB
330
1F0
100
AcDbDictionary
280
     1
281
     1
  3
ACAD_XREC_ROUNDTRIP
360
A2BC
  0
DICTIONARY
  5
A2A9
330
FC
100
AcDbDictionary
280
     1
281
     1
  3
ACAD_XREC_ROUNDTRIP
360
A2AA
  0
DICTIONARY
  5
A29D
330
F6
100
AcDbDictionary
280
     1
281
     1
  3
ACAD_XREC_ROUNDTRIP
360
A29E
  0
DICTIONARY
  5
A2BD
330
1F1
100
AcDbDictionary
280
     1
281
     1
  3
ACAD_XREC_ROUNDTRIP
360
A2BE
  0
XRECORD
  5
A2C6
102
{ACAD_REACTORS
330
A2C5
102
}
330
A2C5
100
AcDbXrecord
280
     1
102
DISPLAYNAME
  1
Metric50
102
FLAGS
 90
        0
  0
XRECORD
  5
A28B
102
{ACAD_REACTORS
330
A28A
102
}
330
A28A
100
AcDbXrecord
280
     1
102
SHADEPLOT
 70
     0
102
SHADEPLOTRESLEVEL
 70
     2
102
SHADEPLOTCUSTOMDPI
 70
   300
  0
XRECORD
  5
A28D
102
{ACAD_REACTORS
330
A28C
102
}
330
A28C
100
AcDbXrecord
280
     1
102
SHADEPLOT
 70
     0
102
SHADEPLOTRESLEVEL
 70
     2
102
SHADEPLOTCUSTOMDPI
 70
   300
  0
XRECORD
  5
A288
102
{ACAD_REACTORS
330
A287
102
}
330
A287
100
AcDbXrecord
280
     1
102
SHADEPLOT
 70
     0
102
SHADEPLOTRESLEVEL
 70
     2
102
SHADEPLOTCUSTOMDPI
 70
   300
  0
XRECORD
  5
A28F
102
{ACAD_REACTORS
330
1F9
102
}
330
1F9
100
AcDbXrecord
280
     1
102
MATERIAL
148
0.0
149
0.0
149
0.0
 93
        0
 94
       63
282
     0
 72
     1
 77
     1
171
     1
175
     1
179
     1
273
     0
  0
XRECORD
  5
1FA
102
{ACAD_REACTORS
330
1F9
102
}
330
1F9
100
AcDbXrecord
280
     1
 70
     1
 90
429727718
  1
D62C5603-E3A1-4AEA-B7FB-FE5D8D0755AF
310
504B03040A0000080000CC70623B3DEE336E79000000790000001B0000006175746F6465736B2D64657369676E2D7061636B6167652E786D6C3C3F786D6C2076657273696F6E3D22312E302220656E636F64696E673D227574662D3822203F3E3C666F726D6174733E3C666F726D61743E687474703A2F2F736368656D612E
310
6175746F6465736B2E636F6D2F64657369676E2D7061636B6167652F323030393C2F666F726D61743E3C2F666F726D6174733E504B0304140006080800CC70623BD486FD9CA0000000F4000000130000005B436F6E74656E745F54797065735D2E786D6C7D8EC10E82300C865F65E91D8A1E8C310C0EEA1BF002731658846E
310
D98AC1B77784ABF1D8FE5FBFBF75BBCE937A534CCEB38643598122B6FEE978D0B0485F9C41B54DDD7D022595594E1A469170414C76A4D9A4D207E29CF43ECE46F218070CC6BECC4078ACAA135ACF422C856C0E68EA1BF5669944DDD7BCDE7B1F8E415D77AECB980613C2E4AC91FC167A2B244592486606FC29C8FD7F045B9A
310
EF7053A7E60B504B0304140006080800CC70623B853B8169EB0000007C01000008000000636F72652E786D6C8D90416EC3201045AF62CDB6C206821CC7C244919D9CA01740401C94182C03558F5F9C3852BBEB6A467FFE9B197D7EFC9E1EC5975982F5AE035262288C535E5B377690E21535501C055FBC8FBF6C503839990E
310
5619041F179FE64D52DE45E362569DD7661365082642A11EB9E920A89B99642953CC8E702F67A9EE7234257977194EC9EAE275C4EABCCF5EAD5940D4AC6F0E35A568B8F43562CD7046CD199FD07E60174276A7BE677B5EADB0E0D14EEFFB6A31321A0D82627C4084204C3F096B71DD52F6819B16635EADF63F509AF53FA164
310
5DDCD1EDDD17164090FCC8732078B56691CB33A85CD7DCC40F504B0304140006080800CC70623B55019EA25F0000007C00000007000000636E782E786D6C4DCB3B0E80201045D1AD90E915ED2CF8AC45050C11660C8261F98AB1B07AC9C97D42D718D865D3E909258CFD00CCE24AC6E326A164D74DC0B4128928FF32603847
310
2BA13128B1252AC747C6BAB984FC68F0B87FE8960A5C09FE86CFB69FBA01504B0304140006080800CC70623BDBABAAF470010000D40300000C0000006662782F636F72652E786D6CC553D16E823014FD95A6AF4B694182CC941A83FA05FB810A9511A125A5257EFE2E82712ECEB8A7F100CD39F7F69E734AF9FADC366850B6
310
AF8DCE7018308C942E4C59EB2AC3DE1D498AD15A706B8CFB56869196ADCAF00863C12B6B7C374385D14E6907A836A59A41D9F7CA615434B0C8705F7CAA5606D23BA8E84F41278B93AC54100640439DE0BDB320004D43C63716C7C399D30917DCFBBA9CD9BA8469F5B156168B24CED3F7248AC8769F27244EB73B92EED8862C
310
B7F13E0C179B3C8F979C8ECD82BBBABDAA2BAC924E9558448CBD9330242CFA08E3154B5651FCC6D215639C8EE5774DBE2B5F6CF2B5768B68963BB5F5588420E442FC700B1139D4CB01F450C1E918227C2E09DF070D8140C84E1E9AAB8F1340832A9CB13130A5F1376A908D57309505ECF2A0DF179C4E9D30F5B239B87E3823
310
7A79C6F31DE1A8A5AEC08474B03C7837EAE4938639B44E5932B833D2C6B6B279CDC613877FA26EE21F4A2A4C63EC7F29A2F301D1F9F7A0E37D145F504B0304140006080800CC70623B9C113CC27E0000009D0000000B0000006662782F636E782E786D6C4DCCDF0A83201C86E15B91DFB94BFB330DD428C8FB886521330DA7
310
6397BF1A1DECE883878F57749FCDA1B7892F1BBC047A23808C7F84D9FA55424E0BE6803A256208E9EF06C84F9B91703228B1C690F78B66B34CD9A5439DF5CF0BFBF65E35BCA1B8D6A5C6F540381E886698B5741C695F9503EBA150A2F8958E3DC3EA0B504B0304140006080800CC70623B7DF2F77C2A010000120200003100
310
00006662782F41393633353835312D344632462D344230382D423046372D3739314545314133324237412F636F72652E786D6C8D51DB8EC22014FC15C2939B0D2DB4B45643319AE817EC0F6041255A68B86CFCFC856D4D76DF7CE190393373060EDB3DC707F856CE6B6B7A480A0C81328395DA5C7B18C3057510EC3873D686
310
3F34088C18550F330C39BB3A1BA7051AAC09CA84841A2BD5020AEF55806078A44B0FFD7053A328440C89E1EFC52486BBB8AA8214A99D789CF9E05200300FC927E4FB4D5B375D43103D5527440FB843077C5AA3F5861C8F645F5787F59E95B390B318B55CE45AA638FAA2957BD7248B390B7A7CC51F9C124149C82B8C378810
310
84AB2F42B7B8DD56F413775B8C5999E9FF4471926F8AA236A1AE96B8B3CC434E5839373893369E1FAF30EA395917409EB7F26AF8801C171837A4A6AC9C89E9F9C9B1A58BA30FD6A5EF5DDDCF894B9AD9B6A59C957943A9FCAE2FD5BC4DFE03504B0304140006080800CC70623BAD7543B64E01000033030000300000006662
310
782F41393633353835312D344632462D344230382D423046372D3739314545314133324237412F636E782E786D6CD593CD6EC32010845F0571AD6CE3D48AD20813A9873E410FBD12D82434182C7EAAE6EDBB2424CD25871E7B41D6EC30B3FA84F9E67BB2E40B4234DE8DB46F1925E094D7C6ED479AD3AE5951B2113C789FEE
310
6C943839C1488B4C05DF079FE72A69D8C96C13AAD6B8631503449F83828872B949AC57D26200B826A308D316B4064D6E46FCDA41C05550DC9E483A00797BFD207EFB092A45DE9514C1BBD22178396BD39D891265658C238DEA00936C654E5E433CB65A26D9F6EDB5EBC14EBF49A45CB856E66048291F6939A9A81BB5C89177
310
38143CA680F4AA299D66A042CEB3354A2684DC9D8D178FE0D9B8B41CAAD720F880EE7EF93C0C18769E099ECC04D5A102C8049A8A05632F4DDF376CF1DE0F6BB65C2F8627B65A33C6BB62177CEBBDAD973006829F89F22E814B54F4BC2BE347F8AA8F681390B50FA73F804400B5F542E796F19FF974E7F78DB802FE05E20750
310
4B0304140006080800CC70623BE75B7789680500003C100000340000006662782F41393633353835312D344632462D344230382D423046372D3739314545314133324237412F6F626A656374732E786D6CAD575B8F9B3818FD2B887D06C22499CB8AA1CA655245D5B455A356FB305264C061D8018C6C3393D95FBFC7600890
310
A4CD5EF210B0B1BFEBF98E3F7B1FF6596ABC522E1296DF9BAE3D320D9A872C4AF2F8DE2CE5CEBA358D0FBEC719939D65A691938CDE9B6ADAF4BD98B3B2D05311DD91329583D9D5FC0F438434A7A611A644887B5384CF34233629258BA878B12322891DEFF6B66BD70BFB62634E8AE781D082709A4B588AF91C528CDA28B73F
310
1C998EEF39EABBEFA97FBD6A7C7E9553F9D3D79FE442923C3C523610337627CB87ABE99D359D4CC6D6E4FACAB5E6ABF9D2726FC6A3C5F56271377BB88362213924694B38DD99FE47C48627A1E7D49F5A8BB5E1A74C0A599ED3B0F21F1E56366B89112D681E218F0915D0D6F17AD41FBA2A369DCF6335D62ABBD39779D5DDD1
310
11D4D8DE3CBB96B2E04FB8202E41051754A1AA8E8F76B4C6DFE810B580B1547F4B84911149794252234D024EF8BBE963A95AE27B3D310A9D5C215C7960FAEE415ED75694C6AFB17BCACA5D99A60A9AA65F217B0BFC53292ACB92BF283FAD0D3621576592CB5BED907C2FA8E9DF794E35E97BEA31BED21FEB401ABB94C44839
310
DCACBF0E1C5DA8DA5B2F4DFFD32AD86F543D9E565E7056502E157C00AD2671CD534549AB752FCA9CDA00677A313F04E51B22FF19E57B300579E3C97EB29F682D92935CEC18CF901B7B54FD8C51F362B56FC72FE0B3C1EAE335EDCCBF5AEC39ADB17DC238973F804BA5E6F6BFE7AF1FB32E523BE9F3BD571418E3631DCA4D48
310
5250CF639223210A9446CA30052EDF057BD35F8329C1ECD84552BF0DC8D18BE7BCE23BFE6BD960AB4A7DE79923A103BEBD80F911CBAA2C60DB19B01CF164A5583B772EE6D3FFA56666CBCDA74DC97724A48F9A58967497E489C4D979006FD7A05E227A1EBDD0F737C623387A9C844D3709995625106D157315F8B8392CD4E0
310
A0B9A720C4BE9829CEF37EA1E13111214D53925356365ADA634861B52519DD27A00AEB808EAF0628E6F435519D446F45CF2C9CF5214F0A15B2F6D06B79DA3EE3CBF7F56780D2F4E7EF73A0F5E5B02A38D07DC852C6B7C1FBB6664213E0C39E3EBA7FF4E1AD23EA2829407C85E586727488B751B2DB9502BC7B228A3FD68B6E
310
A65A22397E690AA8D158D7E404EC8CDA235CC3B7D1898680131CEC2CDF2638C65196279577750F15884AEE19F94199155B92B13297978469D4F8D358DF0AEF7631E28DC8F0D9F437D5D39A83B2231A1D52D543813A824EF8D44BCFF2FA6A31BD1E8DAD87F1CCB526B3879935BF59CDADD5C37479BB1CDD4CA7B3556B516589
310
EF352754B706114D9C885EC9131DE6EFEB43D99AFE2391C2F958179413D7CFEF6B1B6DB1E7600F00DE6E5C67454A339A4BA2E0FBA85ED26F045D454F463DBFCE484C2F90F2E5E3666003662ED8F755951A7D1BECD5B30B550B2785C8E7320B7292A4838DDA71BBC863ED7613CAF659337A3354231D4FF4A182A54904C2898C
310
98B28C4AD0CE056CCF332A80986E571EE9DBC305BB5FEB7E509220A58D25CF042D712A806AC0AD0C657FDEF80D2D9CEAA2EE4D1C76F60BFE74219A06527D6F82DF6412526107381E55E353090704D085B52408A8913C4ED159D79BDA71BB4BC506F4831350EB6F975CD22D69BF7AC49B91A2C0A9DDA3D5CA36AD20FC478E37
310
E61844E2352865EBCB61A275A65283CAAA9DD27703B4102F5AF51EF5F573B75CBB5AD38BC845F7A49F82A0966A49C2E3EA5EA0ECD326CD965F1DB402C6FA8B51A4658C5C5E2EC9E214602E55810345408596591009A82E7E7FFACA19EEA299B14A0081A705CB3296EBC14CDF658DCD336EA6D1136881AAEB87B81AB9EE53D5
310
F5EB8BC8362082DA24122F98680A4E7930C01A0079749CEA14382A0783E5EBA5A10F8C098456A03D6A4AEB6BB881E2513747552A5DB22C7EDAF83BD5528081A365F7FF06504B0304140006080000CC70623B000000000000000000000000350000006662782F41393633353835312D344632462D344230382D423046372D37
310
39314545314133324237412F76657274696365732E62696E504B0304140006080800CC70623BF270F1330600000004000000360000006662782F41393633353835312D344632462D344230382D423046372D3739314545314133324237412F747269616E676C65732E62696E636660600000504B0304140006080000CC7062
310
3B000000000000000000000000370000006662782F41393633353835312D344632462D344230382D423046372D3739314545314133324237412F617474726962757465732E62696E504B0304140006080800CC70623B08DA0BD19000000041010000360000006662782F41393633353835312D344632462D344230382D4230
310
46372D3739314545314133324237412F6469726563746F72792E786D6C858F410AC3201045AF22B36F53E9A60B35CBEEBAE80D244E44489C6234F4F835464A48035D0DF398FF9F8AF63D0E6CC63039F212F8F9020C7D47C6792B21C5FE7403D62A1188E2E60C98D7234A5830286103A55745067B9D86B8A3CF9C7F90C11DE6
310
07FB144396D7B6A82D282E9A152AD114D5EF2CB866EEE831B8EEA07A7BB5A8D7D61A2BAAEB7FD5F70921FF497D00504B0304140006080800CC70623BEDD1DC58FD000000A00100003B0000006662782F41393633353835312D344632462D344230382D423046372D3739314545314133324237412F7265736F75726365732F
310
636F72652E786D6C8D504B6E833010BD0A9A6D65B00922041947112427E8052C33A156828DFCA97AFC9A40A576D7CDCCE87D344F8F9FBFE667F689CE6B6B3A6039850C8DB2A336530731DC4903D95970676DF82583CCC8193B5861107C72362E3BA4AC096842428D1D7107A5F7182053CF7474E0D507CE32973124857FE48B
310
540F3961CEF244279DE03EB81420DB9EAC1384436FA353E879B1B182C7A8C75DA3C7F453DF353A1075D537A7BA6464B8F535A99AE14A9A2BBD90E350DD183B5CFABE3AF262350B1EF4FC9351399401471025A527C218A1E53BAB5A5AB765F5469B96525EACF23FA6B88CFF34456DC2A1DCE36E360F82A5202F42F062ED2BAD
310
579969AFDD8A6F504B010214000A0000080000CC70623B3DEE336E79000000790000001B00000000000000000000000000000000006175746F6465736B2D64657369676E2D7061636B6167652E786D6C504B01021400140006080800CC70623BD486FD9CA0000000F40000001300000000000000000000000000B20000005B
310
436F6E74656E745F54797065735D2E786D6C504B01021400140006080800CC70623B853B8169EB0000007C010000080000000000000000000000000083010000636F72652E786D6C504B01021400140006080800CC70623B55019EA25F0000007C000000070000000000000000000000000094020000636E782E786D6C504B
310
01021400140006080800CC70623BDBABAAF470010000D40300000C00000000000000000000000000180300006662782F636F72652E786D6C504B01021400140006080800CC70623B9C113CC27E0000009D0000000B00000000000000000000000000B20400006662782F636E782E786D6C504B01021400140006080800CC70
310
623B7DF2F77C2A010000120200003100000000000000000000000000590500006662782F41393633353835312D344632462D344230382D423046372D3739314545314133324237412F636F72652E786D6C504B01021400140006080800CC70623BAD7543B64E010000330300003000000000000000000000000000D2060000
310
6662782F41393633353835312D344632462D344230382D423046372D3739314545314133324237412F636E782E786D6C504B01021400140006080800CC70623BE75B7789680500003C10000034000000000000000000000000006E0800006662782F41393633353835312D344632462D344230382D423046372D3739314545
310
314133324237412F6F626A656374732E786D6C504B01021400140006080000CC70623B0000000000000000000000003500000000000000000000000000280E00006662782F41393633353835312D344632462D344230382D423046372D3739314545314133324237412F76657274696365732E62696E504B01021400140006
310
080800CC70623BF270F133060000000400000036000000000000000000000000007B0E00006662782F41393633353835312D344632462D344230382D423046372D3739314545314133324237412F747269616E676C65732E62696E504B01021400140006080000CC70623B0000000000000000000000003700000000000000
310
000000000000D50E00006662782F41393633353835312D344632462D344230382D423046372D3739314545314133324237412F617474726962757465732E62696E504B01021400140006080800CC70623B08DA0BD1900000004101000036000000000000000000000000002A0F00006662782F41393633353835312D344632
310
462D344230382D423046372D3739314545314133324237412F6469726563746F72792E786D6C504B01021400140006080800CC70623BEDD1DC58FD000000A00100003B000000000000000000000000000E1000006662782F41393633353835312D344632462D344230382D423046372D3739314545314133324237412F7265
310
736F75726365732F636F72652E786D6C504B0506000000000E000E0080040000641100000000
  0
XRECORD
  5
A28E
102
{ACAD_REACTORS
330
1F7
102
}
330
1F7
100
AcDbXrecord
280
     1
102
MATERIAL
148
0.0
149
0.0
149
0.0
 93
        0
 94
       63
282
     0
 72
     1
 77
     1
171
     1
175
     1
179
     1
273
     0
  0
XRECORD
  5
1F8
102
{ACAD_REACTORS
330
1F7
102
}
330
1F7
100
AcDbXrecord
280
     1
 70
     1
 90
429727718
  1
30362254-06B7-45E0-A893-8CFA70E3D6BC
310
504B03040A0000080000CC70623B3DEE336E79000000790000001B0000006175746F6465736B2D64657369676E2D7061636B6167652E786D6C3C3F786D6C2076657273696F6E3D22312E302220656E636F64696E673D227574662D3822203F3E3C666F726D6174733E3C666F726D61743E687474703A2F2F736368656D612E
310
6175746F6465736B2E636F6D2F64657369676E2D7061636B6167652F323030393C2F666F726D61743E3C2F666F726D6174733E504B0304140006080800CC70623BD486FD9CA0000000F4000000130000005B436F6E74656E745F54797065735D2E786D6C7D8EC10E82300C865F65E91D8A1E8C310C0EEA1BF002731658846E
310
D98AC1B77784ABF1D8FE5FBFBF75BBCE937A534CCEB38643598122B6FEE978D0B0485F9C41B54DDD7D022595594E1A469170414C76A4D9A4D207E29CF43ECE46F218070CC6BECC4078ACAA135ACF422C856C0E68EA1BF5669944DDD7BCDE7B1F8E415D77AECB980613C2E4AC91FC167A2B244592486606FC29C8FD7F045B9A
310
EF7053A7E60B504B0304140006080800CC70623B1EC5D7A3EB0000007C01000008000000636F72652E786D6C8D90416EC3201045AF82665B6103C6756C6122AB4D4ED00B204C5C94182C03558F5F9C3852BBEB6A467FFE9B197D71FC9E6FE8CBACC17AD7032D0820E3B41FAD9B7A48F1820F808E52ACDEC75F36404ECDA687
310
4D0629A6D5A76597B477D1B89855E747B38B2A041301E95B6E7A08FAD3CCAA50296647B8168BD2573599823EBB0CA76447F43862C7BCCF5EAC59410E4DDD9C7973C2755553CCCFA4C603E3040F1565ED3B1FDE4E432BCA0D9622DAF9795FAF464533826484B498524CD807E51D79ED187F21878E10516EF63F505AC67F42C9
310
BA58B1FDDD071640D2FCC87D2045B96591CB3DA85CB7DCE40F504B0304140006080800CC70623B55019EA25F0000007C00000007000000636E782E786D6C4DCB3B0E80201045D1AD90E915ED2CF8AC45050C11660C8261F98AB1B07AC9C97D42D718D865D3E909258CFD00CCE24AC6E326A164D74DC0B4128928FF32603847
310
2BA13128B1252AC747C6BAB984FC68F0B87FE8960A5C09FE86CFB69FBA01504B0304140006080800CC70623B8C9102E971010000D40300000C0000006662782F636F72652E786D6CC5535B6E833010BC8AE5DF0A6C08340F1947A84D4ED00B38C6A128602363A31CBFCB234A53A551FA553EC09AD9F5CE8C31DB9E9B1AF5CA
310
7695D1198E428A91D2D214952E33ECDD315861B4E5CC1AE3BE9561A445A3323CC098B3D21ADFCE9034DA29ED00D5A6503328BA4E398C640D8B0C77F253352214DE4145770A5B214FA2546114020D759C75CE8200340D19DE981F0F6746269C33EFAB6266AB02A655C74A59CCF365BADC27CB5D902ED22848F6340DF238A141
310
BE88E2F57B92BFEDF23523433367AE6A2EEAA455C2A902F398D2751045018D3FA264435F3771F242571B4A1919CA6F9A7C5B3CD9E42BED16F12C776AEB308F40C848FC700B1139D4891EF410CEC810227CC6846F8386402064270EF5C5C709A05E49676C024C61FC95EA45ED154CA5211D1FF4FB8291A913A68E9B83EBBB33
310
E2A7673CDE118E5AE8124C0807CB8377834E366998436B950D7A7746DAD846D4CFD978E0F04FD455FC5D49D2D4C6FE9722321F10997F0F32DC47FE05504B0304140006080800CC70623BFFEA85907E0000009D0000000B0000006662782F636E782E786D6C4DCCD10A83201886E15B91FFDC95D95A811AB6F23E625948A6C3
310
E9D8E5AF46073BFAE0E1E365ED67B3E8ADC3CB78C7815C7240DA3DFC64DCC221C519D7805AC182F7F1EF06C88D9BE6703008B6049F9E274D7A1E938DBB5AE3D6131B2589BA0D3D965551E0B2EA732C9B9A624AAEB41E3A557677029960D9AFB4EF11165F504B0304140006080800CC70623B4FEEA4082C0100001202000031
310
0000006662782F39464131463745442D413632322D343644302D413938332D3331353338454246344243312F636F72652E786D6C8D515B6EC32010BC0AE2AB55850DD871ED0813254D72825EC00192A2C460F1A872FC42ED48ED5F7E00CDCECCCEB26C731F6FE05B39AFADE921293004CA082BB5B9F43086336A21D870E6AC
310
0D7F68109861543DCC30E4ECE26C9C164858139409093556AA051CBC570102714B8F1E7AF1A5C6A11862480C7F2DA6415C878B2A4891CA89C7990F2E050073937C42DE1DB7E4F87ED8A36D4329AA9B3D46DBAEAD504556557BD81DEBDD0761E52CE42C462D17B996298E3E6BE59E35C962CE821E1FF18553435012728A7187
310
0841987E927A8D9B35ADDF70BBC6989599FE4F1427F9A4286A132ABAC49D651EF234CD5CE04CDA78BA3DC2A8FB645D00B9DF8B57E215725C60BCA2A463E54C4CE327C7A65E1C7DB02E7DEFCBF594B864C5CA6CDBD49C957943E9FA5D5FBAF336F90F504B0304140006080800CC70623BAD7543B64E01000033030000300000
310
006662782F39464131463745442D413632322D343644302D413938332D3331353338454246344243312F636E782E786D6CD593CD6EC32010845F0571AD6CE3D48AD20813A9873E410FBD12D82434182C7EAAE6EDBB2424CD25871E7B41D6EC30B3FA84F9E67BB2E40B4234DE8DB46F1925E094D7C6ED479AD3AE5951B2113C
310
789FEE6C943839C1488B4C05DF079FE72A69D8C96C13AAD6B8631503449F83828872B949AC57D26200B826A308D316B4064D6E46FCDA41C05550DC9E483A00797BFD207EFB092A45DE9514C1BBD22178396BD39D891265658C238DEA00936C654E5E433CB65A26D9F6EDB5EBC14EBF49A45CB856E66048291F6939A9A81BB5
310
C8917738143CA680F4AA299D66A042CEB3354A2684DC9D8D178FE0D9B8B41CAAD720F880EE7EF93C0C18769E099ECC04D5A102C8049A8A05632F4DDF376CF1DE0F6BB65C2F8627B65A33C6BB62177CEBBDAD973006829F89F22E814B54F4BC2BE347F8AA8F681390B50FA73F804400B5F542E796F19FF974E7F78DB802FE05
310
E207504B0304140006080800CC70623B16AB87BA640500003C100000340000006662782F39464131463745442D413632322D343644302D413938332D3331353338454246344243312F6F626A656374732E786D6CAD575B6FA33818FD2B887DE6924B3BED8A326A92B68A663B534DD4D13E548A0C38942D60649B369D5FBFC7
310
600890A493BDE42160637FD7F31D7FF63E6FB3D478A55C242CBF3247B66B1A340F5994E4F19559CA8D75611A9F7D8F33263BCB4C232719BD32D5B4E97B316765A1A722BA21652A07B3B7B33F0D11D29C9A46981221AE4C113ED38CD8A4942CA2E2C58E882476BCD9DA23BB5ED8171B73523C0F841684D35CC252CCE79062D4
310
468DFA43D7747CCF51DF7D4FFDEB5593E3AB9CCA9FBEFE241792E4E19EB28198C968BAB8199F5D5A67D3E9C49A9E8F47D6EC76B6B0469F26EEFC7C3EBFBCBEB98462213924694B38DD98FE1D62C393D073EA4FADC5DAF04326852CCF6958F90F0F2B9BB5C48816348F90C7840A68EB78EDF68723159BCEE7891A6B95DDE9D3
310
BCEAEEE8086A6C6F9E5D4B59F0175C10A7A0820BAA5055C7473B5AE3CFDD452D602CD5DF12616444529E90D448938013FE6EFA58AA96F85E4F8C42275708571E98FE6827AF6B2B4AE3D7D83D64E5A64C53054DD3AF90BD06FEA9149565C94FCA0F6B834DC85599E4F2423B24DF0B6AFA979E534DFA9E7A4CC6FA631D486393
310
921829879BF5D781A373557BCB85E97FB90DB62B558F8795179C15944B051F40AB495CF35451D26A4727654E6D8033BD98EF82F21D91FF8AF2DD9982BCF1643BDD4EB516C9492E368C67C88DED563FC36D5EACF66DFF057C3658BDBFA69DF9578B3DA735B64F18C7F20770A9D45CFCF7FCF563D6456A277DBEF78A02637CA2
310
43B90A490AEAB94F72244481D24819A6C0E59B606BFA4B3025981DBB48EAB701D97BF19C577CC77F2D1B6C55A9EF3C732474C0B727303F625995056C3B02963D9EAC146BE78EC5FCEC7FA999EBC5EACBAAE41B12D27B4D2C0BBA49F244E2ECDC81B76B502F113D8F5EE8FB1BE3111CDD4FC2AA9B844CAB1288B68AB90A7CDC
310
1C166AB0D3DC5310625FCC14E779BFD0709F8890A629C9292B1B2DED31A4B0DA928CEE135085754027E3018A397D4D5427D15BD1330B677DC8934285AC3DF45A9EB68FF8F2B8FC0A509AFEECFD0FF2DE25CC6047F7214B195F07EFEB9A094D800F7BFAE8FED187B78EA8A3A400F115961BCAD1215E47C966530AF0EE8128FE
310
58CEBB996A8964FFA529A046635D9353B0336A8F700DDF46271A024E70B0B37C9DE01847591E54DED53D54202AB947E4076556AC49C6CA5C9E1226B7F1A7B1BE15DEED62C41B91E1B3E9AFAAA735036547343A925075041DF0A9979E893B391F8FCFA6967B3EFB644DCF6E5CEBFAE272625DCC6FAF3FB93793C5F90CE1EF57
310
407342756B10D1C489E8953CD1617E5CEECAD6F4EF8914CE5D5D504E5C3F1F9736DA62CFC11E00BCDDB8CC8A9466349744C1F75EBDA4DF09BA8A9E8C7A7E9991989E20E5DBDD6A6003664ED8F7A04A8DBE0DF6EAD9B9AA858342E47399053949D2C146EDB85DE4B176BB0965FBAC19BD19AA918E27FA50C1D22402E144464C
310
59462568E704B6E71915404CB72B8FF4EDE184DDAF753F284990D2C6926782963815403548A70C657FDEF80D2D9CEAA2AE4C1C76F60BFE74219A06527D6582DF6412526107381E55E353090704D085B52408D0933C4ED159D79BDA71BB4BC506F4831350EB6F979CD22D69BF7AC49B91A2C0A9DDA3D5CA36AD20FC478E37E6
310
1844E2352865EBCB6EA275A652E3836BE04EFB400BF1A2556F515F1FBB35B2AB35BD889C744FFA1004B5544B121E57F70215746DD2F5E2C1412B602CBF19455AC6C8E5E9922C4E01E65215385004546899059180EAFCF7A707CE7017CD8CDB0410789AB32C63B91E5CEBBBACB17AC6CD347A022D5075FD106377347AAABA7E
310
7D11590744509B44E205134DC1290F06580320F78E537D3D73540E06CB970B431F185308AD40BBD794D6D77003C5A36E8EAA54BA64597CD8F83BD552A080A365F7FF06504B0304140006080000CC70623B000000000000000000000000350000006662782F39464131463745442D413632322D343644302D413938332D3331
310
353338454246344243312F76657274696365732E62696E504B0304140006080800CC70623BF270F1330600000004000000360000006662782F39464131463745442D413632322D343644302D413938332D3331353338454246344243312F747269616E676C65732E62696E636660600000504B0304140006080000CC70623B
310
000000000000000000000000370000006662782F39464131463745442D413632322D343644302D413938332D3331353338454246344243312F617474726962757465732E62696E504B0304140006080800CC70623B08DA0BD19000000041010000360000006662782F39464131463745442D413632322D343644302D413938
310
332D3331353338454246344243312F6469726563746F72792E786D6C858F410AC3201045AF22B36F53E9A60B35CBEEBAE80D244E44489C6234F4F835464A48035D0DF398FF9F8AF63D0E6CC63039F212F8F9020C7D47C6792B21C5FE7403D62A1188E2E60C98D7234A5830286103A55745067B9D86B8A3CF9C7F90C11DE607
310
FB144396D7B6A82D282E9A152AD114D5EF2CB866EEE831B8EEA07A7BB5A8D7D61A2BAAEB7FD5F70921FF497D00504B0304140006080800CC70623B0D6EF93BFE000000A00100003B0000006662782F39464131463745442D413632322D343644302D413938332D3331353338454246344243312F7265736F75726365732F63
310
6F72652E786D6C8D50596E833010BD0A9ADFCA60B334011947A8694ED00B586642AC041B79A97AFC9A40A5F6AF3F33A3B7689E1E3F7DCD8FEC139DD7D6F4C0720A191A65476DA61E62B892236427C19DB5E1970C322367EC618541F0C9D9B8EC90B226A009093576C41D94DE63804C3DD2D18357379C652E63480A7FCF17A9
310
EE72C29CE5894E3AC17D702940B63D59270887DE46A7D0F36263058F518FBB468FE9A7BE6A7420864373B8D4873369AA8691FA421B3294352543C5CAF65C0F6FEF43CB8BD52C78D0F34F46E550061C419494B6843142CB0F5677F4B52BEB177AEC28E5C52AFF638ACBF84F53D42654E51E77B379102C05791282176B5F693D
310
CB4C7BED567C03504B010214000A0000080000CC70623B3DEE336E79000000790000001B00000000000000000000000000000000006175746F6465736B2D64657369676E2D7061636B6167652E786D6C504B01021400140006080800CC70623BD486FD9CA0000000F40000001300000000000000000000000000B20000005B
310
436F6E74656E745F54797065735D2E786D6C504B01021400140006080800CC70623B1EC5D7A3EB0000007C010000080000000000000000000000000083010000636F72652E786D6C504B01021400140006080800CC70623B55019EA25F0000007C000000070000000000000000000000000094020000636E782E786D6C504B
310
01021400140006080800CC70623B8C9102E971010000D40300000C00000000000000000000000000180300006662782F636F72652E786D6C504B01021400140006080800CC70623BFFEA85907E0000009D0000000B00000000000000000000000000B30400006662782F636E782E786D6C504B01021400140006080800CC70
310
623B4FEEA4082C0100001202000031000000000000000000000000005A0500006662782F39464131463745442D413632322D343644302D413938332D3331353338454246344243312F636F72652E786D6C504B01021400140006080800CC70623BAD7543B64E010000330300003000000000000000000000000000D5060000
310
6662782F39464131463745442D413632322D343644302D413938332D3331353338454246344243312F636E782E786D6C504B01021400140006080800CC70623B16AB87BA640500003C1000003400000000000000000000000000710800006662782F39464131463745442D413632322D343644302D413938332D3331353338
310
454246344243312F6F626A656374732E786D6C504B01021400140006080000CC70623B0000000000000000000000003500000000000000000000000000270E00006662782F39464131463745442D413632322D343644302D413938332D3331353338454246344243312F76657274696365732E62696E504B01021400140006
310
080800CC70623BF270F133060000000400000036000000000000000000000000007A0E00006662782F39464131463745442D413632322D343644302D413938332D3331353338454246344243312F747269616E676C65732E62696E504B01021400140006080000CC70623B0000000000000000000000003700000000000000
310
000000000000D40E00006662782F39464131463745442D413632322D343644302D413938332D3331353338454246344243312F617474726962757465732E62696E504B01021400140006080800CC70623B08DA0BD190000000410100003600000000000000000000000000290F00006662782F39464131463745442D413632
310
322D343644302D413938332D3331353338454246344243312F6469726563746F72792E786D6C504B01021400140006080800CC70623B0D6EF93BFE000000A00100003B000000000000000000000000000D1000006662782F39464131463745442D413632322D343644302D413938332D3331353338454246344243312F7265
310
736F75726365732F636F72652E786D6C504B0506000000000E000E0080040000641100000000
  0
XRECORD
  5
A290
102
{ACAD_REACTORS
330
173
102
}
330
173
100
AcDbXrecord
280
     1
102
MATERIAL
148
0.0
149
0.0
149
0.0
 93
        0
 94
       63
282
     0
 72
     1
 77
     1
171
     1
175
     1
179
     1
273
     0
  0
XRECORD
  5
175
102
{ACAD_REACTORS
330
173
102
}
330
173
100
AcDbXrecord
280
     1
270
     1
271
     1
  0
XRECORD
  5
174
102
{ACAD_REACTORS
330
173
102
}
330
173
100
AcDbXrecord
280
     1
270
     1
271
     1
  0
XRECORD
  5
1FB
102
{ACAD_REACTORS
330
173
102
}
330
173
100
AcDbXrecord
280
     1
 70
     0
 90
1673772943
  1
ECE7A1D2-D628-4531-984C-D00F80459256
310
504B03040A0000080000CC70623B3DEE336E79000000790000001B0000006175746F6465736B2D64657369676E2D7061636B6167652E786D6C3C3F786D6C2076657273696F6E3D22312E302220656E636F64696E673D227574662D3822203F3E3C666F726D6174733E3C666F726D61743E687474703A2F2F736368656D612E
310
6175746F6465736B2E636F6D2F64657369676E2D7061636B6167652F323030393C2F666F726D61743E3C2F666F726D6174733E504B0304140006080800CC70623BD486FD9CA0000000F4000000130000005B436F6E74656E745F54797065735D2E786D6C7D8EC10E82300C865F65E91D8A1E8C310C0EEA1BF002731658846E
310
D98AC1B77784ABF1D8FE5FBFBF75BBCE937A534CCEB38643598122B6FEE978D0B0485F9C41B54DDD7D022595594E1A469170414C76A4D9A4D207E29CF43ECE46F218070CC6BECC4078ACAA135ACF422C856C0E68EA1BF5669944DDD7BCDE7B1F8E415D77AECB980613C2E4AC91FC167A2B244592486606FC29C8FD7F045B9A
310
EF7053A7E60B504B0304140006080800CC70623BD9DDAED0EC0000007C01000008000000636F72652E786D6C8D90416EC3201045AF82665B61836D9CD8C2444DD39CA01740405C94182C03558F5F9C3852BBEB6A467FFE9B197D7EF89E6EE8CB2CC17A37002D0820E394D7D68D03A478C17B4007C117EFE32F1B20272733C0
310
2A83E0E3E2D3BC49CABB685CCCAAF3DA6CA20CC14440EA969B0182FA34932C648AD911AEC52CD5558EA6A0CF2EC329598D1E47ACCEFBECC59A050463A7EA5833865FEBDD0E37353BE3EE8DBDE3F6786A48D375FBF6CC78B9C282473B3DEFABC5C86834888A900E538A49F5419B9EB47DD5BC907D4F082F57FB1F28CDFA9F50
310
B22ED6D5F6EE030B20687EE43E10BC5CB3C8E51E54AE6B6EE207504B0304140006080800CC70623B55019EA25F0000007C00000007000000636E782E786D6C4DCB3B0E80201045D1AD90E915ED2CF8AC45050C11660C8261F98AB1B07AC9C97D42D718D865D3E909258CFD00CCE24AC6E326A164D74DC0B4128928FF326038
310
472BA13128B1252AC747C6BAB984FC68F0B87FE8960A5C09FE86CFB69FBA01504B0304140006080800CC70623BA24EB22D72010000D40300000C0000006662782F636F72652E786D6CC5535B6E833010BC8AE5DF0A6C5E49888CA3A6694ED00B38E05014B091B1518EDFE511A5A9D228FD2A1F60CDEC7A67C6986DCE4D8D7A
310
69BA4AAB0C073EC548AA5C17952A33ECECD15B61B4E1CC686DBF9561A44423333CC098B3D268D7CE50AE9595CA02AA74216750749DB418E5352C32DCE59FB211BE70162ABA93DF8AFC244AE9073ED050C759670D0840D390E18DF9F1706664C23973AE2A66B62A605A75ACA4C13C4976E1364A12EF355A2EBD384AF65EFA96
310
BC7B8BED2EA6719AAE16FB8491A199335B351775B991C2CA02F390D2D40B028F861F41BCA68B7518BFD0D59A524686F29B26D7164F36B94AD9289CE54E6D1DE6010819891F6E21228B3AD1831EC219194284CF98F06DD01008846CC5A1BEF83801D4CBDC6A1303536877A57A513B0953A94FC707FDBE6064EA84A9E3E6E0FA
310
EE8CF0E9198F7784A316AA0413C2C2F2E0ECA0934D1AE6D05A69BCDE9E91D2A611F573361E38FC1375157F5752AE6B6DFE4B11990F88CCBF0719EE23FF02504B0304140006080800CC70623B408A7D3B7C0000009D0000000B0000006662782F636E782E786D6C4DCCD10A83201886E15B91FFDC552A92A0064DBC8F581632
310
D3703A76F9ABD1C18E3E78F878E5F0D9027ABBFCF2292AE86E2D20171F69F6715550CB827B40839639A5F2770314A7CD293819B45C73AAFB45B35BA61ACAA1C1C7E7855C58C15BC331339661262CC762340413D68D77DA5B42298546CBE6573AF60CEB2F504B0304140006080800CC70623B449FB9BD290100001202000031
310
0000006662782F36394639363044362D344446342D343946362D394244322D3234314243333846323333332F636F72652E786D6C8D515B6EC32010BC0AE22B55850D98B871848994463E412FE002495162B07854397EA176A4F62F3F2C9A9D991D587EB84F37F0AD7D30CEF6905418026DA553C65E7A98E219ED203808EE9D
310
8B7F6810D871D23D2C3014FCE25D9A57483A1BB58D19B54EE9151C43D0110279CB971E06F9A5A7B11A53CC8C70ADE6515EC78BAE4895DB992778883E0700CB907242D17643D7E2538BD869608875438BBAE38922CAC8F1BDD90DB4691A5E2F42C153326A951B95E398B3D1FE599322163C9AE9115F7A3D46ADA0A018778810
310
84E907617BDCEE297BC5BB3DC6BC2EF47FA234AB2745C9D8D8D035EE220B50105E2F0DC1954B9FB747187D9F9D8FA0CCDB042D5FA0C015C65B42DF78BD10F3F3B363CB56C7109DCFDFBBB97E662ED92EB62D13BC2E1BCAE5777DB9966D8A1F504B0304140006080800CC70623BAD7543B64E01000033030000300000006662
310
782F36394639363044362D344446342D343946362D394244322D3234314243333846323333332F636E782E786D6CD593CD6EC32010845F0571AD6CE3D48AD20813A9873E410FBD12D82434182C7EAAE6EDBB2424CD25871E7B41D6EC30B3FA84F9E67BB2E40B4234DE8DB46F1925E094D7C6ED479AD3AE5951B2113C789FEE
310
6C943839C1488B4C05DF079FE72A69D8C96C13AAD6B8631503449F83828872B949AC57D26200B826A308D316B4064D6E46FCDA41C05550DC9E483A00797BFD207EFB092A45DE9514C1BBD22178396BD39D891265658C238DEA00936C654E5E433CB65A26D9F6EDB5EBC14EBF49A45CB856E66048291F6939A9A81BB5C89177
310
38143CA680F4AA299D66A042CEB3354A2684DC9D8D178FE0D9B8B41CAAD720F880EE7EF93C0C18769E099ECC04D5A102C8049A8A05632F4DDF376CF1DE0F6BB65C2F8627B65A33C6BB62177CEBBDAD973006829F89F22E814B54F4BC2BE347F8AA8F681390B50FA73F804400B5F542E796F19FF974E7F78DB802FE05E20750
310
4B0304140006080800CC70623B8D05915C650500003B100000340000006662782F36394639363044362D344446342D343946362D394244322D3234314243333846323333332F6F626A656374732E786D6CAD575B6FA33814FE2B887D06429276DA1565D4266D158D3A339A6846FB502932E050B66023DB74D2FDF5FB190C01
310
9276B2973C046C8ECFF53B17071F77456EBD502133CEAE6CDF9DD81665314F32965ED995DA3A17B6F5310C04E7AA47665B8C14F4CAD6DB7618A48257A5D94AE89654B91AEDDEDDFC61C998326A5B714EA4BCB265FC440BE2924AF184CA6737218AB8E976E7FA6E4338649B0A523E8D98964450A6A029F619B8588D52FE7039
310
B1BD30F0F4F730D0FF866AF6369557DB33949F31A9088B0F848DD8CCFCF9F2767A76E99CCDE733677E3EF59D9BBB9BA5E37F984D16E78BC5E5F5ED25044B25C0C96822E8D60EEFE11B91C581D77CEA34368A1F5329E68CD1B8B61F16D63A1B8E092D294B10C78C4A48EB593D192E7DED9BDEE7995E1B91FDEDD3ACEA9FE831
310
6A756F9F7D4D79F4274C90A7A04248AA51D5F8C718DAE06FB2F75AC4796EBE65D22A88A22223B995679120E2D50E41AA49C260C046A35368846B0BECD0DFF3EBEB8AD4F835768F69B9ADF25C43D30E6B646F807FAA64AD59F61715C7A54127C4AACA98BA3006A9D792DAE165E0D59B61A01FB3A9F9D838D2DAE62445C86166
310
F37564E842E7DE6A69879FEEA2DD5AE7E371E1A5E025154AC307D06A03D73EB5978C58FFA4C8E9033066E0F3BD53BEC1F39F91BE7B55103791EDE6BBB991A2046172CB4581D8B893FA674DDA17A77B3B7C413D1B511FD2743BFF8A38F03A658705E3ADF8015C3A3417FF3D7E439FF591DA0B5F18BC20C1B8981957AE6392A3
310
F43C640C01D1A0B4728E2DD4F26DB4B3C3152A252A3B4E913CEC1C72F012782FF88EFF8637AA552DBEF76408E8A8DE9E50F9E1CB3A2DA0DB1B6039A893B56063DC5B3E3FFB5F72E67AB9FEB4AEC496C4F4C1149625DD662C53E89D7BF0F6151A046260D1337DFDC94502430F83B0EE07A130A224BCAD7DAE1D9FB6CD422FF6
310
920702629C4BB9AE79C12F243C6432A6794E18E5552BA56B431AAB5D91317302B2B071E86C3A42B1A02F999E24061403B5D0EB639195DA655DD3EBEAB4FB862DDF579F014AD0E73C22F99E28DA57FB98E75C6CA2D74D53086D600F4786E0FE3144B771A8A7B900F03594DB8A633CBC49B2EDB69228BB479CF863B5E807AAAB
310
23872F6DFEB4129B949CA33823F58830E86D65621E10047D9DB34D862E8EAC3C2ABC2F7B2C40D67CDFE01F5545B92105AF983AC54D93D69E56FB8E797F88913F898A9FEC705D3F9D1B54EC8426FB500D40A03BD0119B06E1B95DDC7EB8F6975367793EBD70E66733DFB9BC982F9CE564727731999F5D4ECFCE3B8D6A4DC2A0
310
6D50FD148437D110834A64C6CDDF57FBACB5C307A2A477DFE4939736CFEF2B175371E0E10CF0DD1D5C15654E0BCA14D1E87DD02FF93782A162C0A3D95F1524A52770F972BF1EE9809D13CE7DD599467F8ECE9ADD85CE85A34CD45355448C64F9E8A031DC2D596ACC6E5DD93D9B82DE2EF5CAF81363A8E47996A0DE24564A79
310
4115AACE09C55E14540231FDA13C319787134EBF34E3A022514E5B4D9E0826E25C02D5805B15ABE1BEF51B26383D445DD9E875EE33FE4C22DA16427D65A3BCA92CA6D28DD01DF5DC53330704308475351050232CCD31583787BA75774AFB06E5070DD0C8EF484E19968C5D83BA5B90B244D31E54D55A372320FE4786B7EA58
310
44E135AA5467CB7EA333A61683CC6A8C3257034C10CF46F40EF9F5BE59BE5BD30C3C72D235E95D10345C1D45445A5F0BB47E46A5EBE5570F9380B5FA629579952296A773720405982B9DE04011506178964401AA8BDF1FBF0A8EAB6861DD6580C0E38217056766716DAEB2D6FA0917D3E4116581EADB879C4E7CFFB11EFACD
310
3D641311495D92C8676CB409A72D18610D803CE8A626049E8EC1887CB5B44CC39883690DDA8399B4B9855B481E7D71D4A9D22F96E5BB73BF5793020C02137BF837504B0304140006080000CC70623B000000000000000000000000350000006662782F36394639363044362D344446342D343946362D394244322D32343142
310
43333846323333332F76657274696365732E62696E504B0304140006080800CC70623BF270F1330600000004000000360000006662782F36394639363044362D344446342D343946362D394244322D3234314243333846323333332F747269616E676C65732E62696E636660600000504B0304140006080000CC70623B0000
310
00000000000000000000370000006662782F36394639363044362D344446342D343946362D394244322D3234314243333846323333332F617474726962757465732E62696E504B0304140006080800CC70623B08DA0BD19000000041010000360000006662782F36394639363044362D344446342D343946362D394244322D
310
3234314243333846323333332F6469726563746F72792E786D6C858F410AC3201045AF22B36F53E9A60B35CBEEBAE80D244E44489C6234F4F835464A48035D0DF398FF9F8AF63D0E6CC63039F212F8F9020C7D47C6792B21C5FE7403D62A1188E2E60C98D7234A5830286103A55745067B9D86B8A3CF9C7F90C11DE607FB14
310
4396D7B6A82D282E9A152AD114D5EF2CB866EEE831B8EEA07A7BB5A8D7D61A2BAAEB7FD5F70921FF497D00504B0304140006080800CC70623BCA768048FE000000A00100003B0000006662782F36394639363044362D344446342D343946362D394244322D3234314243333846323333332F7265736F75726365732F636F72
310
652E786D6C8D50596E833010BD0A9ADFCA60D600328E9AA639412F609909B1126CE4A5EAF16B0295DABFFECC8CDEA2797AECF8353F924FB44E193D409E5248504B332A3D0D10FC95B4901C39B3C6F85F3248B49871801506CE266BC2B243D2688FDA47549B11775038871E12F988C7004EDE7016A9083E2ADC3D5D84BC8B09
310
D33C8D74D471E6BC8D0192EDC93A815B742658898E651BCB59086ADC356A8C3FD555A1055ED7E7E254D615792D0F075295F585746FF53B694EE78A565DD736979A65AB9933AFE69F8CD2A2F038022F28ED489E135A7CE4554F9BBEA85E68DB53CAB255FEC71496F19FA6A0B42F8B3DEE6673C0F318E4497096AD7DC5F52C33
310
EEB55BFE0D504B010214000A0000080000CC70623B3DEE336E79000000790000001B00000000000000000000000000000000006175746F6465736B2D64657369676E2D7061636B6167652E786D6C504B01021400140006080800CC70623BD486FD9CA0000000F40000001300000000000000000000000000B20000005B436F
310
6E74656E745F54797065735D2E786D6C504B01021400140006080800CC70623BD9DDAED0EC0000007C010000080000000000000000000000000083010000636F72652E786D6C504B01021400140006080800CC70623B55019EA25F0000007C000000070000000000000000000000000095020000636E782E786D6C504B0102
310
1400140006080800CC70623BA24EB22D72010000D40300000C00000000000000000000000000190300006662782F636F72652E786D6C504B01021400140006080800CC70623B408A7D3B7C0000009D0000000B00000000000000000000000000B50400006662782F636E782E786D6C504B01021400140006080800CC70623B
310
449FB9BD290100001202000031000000000000000000000000005A0500006662782F36394639363044362D344446342D343946362D394244322D3234314243333846323333332F636F72652E786D6C504B01021400140006080800CC70623BAD7543B64E010000330300003000000000000000000000000000D20600006662
310
782F36394639363044362D344446342D343946362D394244322D3234314243333846323333332F636E782E786D6C504B01021400140006080800CC70623B8D05915C650500003B10000034000000000000000000000000006E0800006662782F36394639363044362D344446342D343946362D394244322D32343142433338
310
46323333332F6F626A656374732E786D6C504B01021400140006080000CC70623B0000000000000000000000003500000000000000000000000000250E00006662782F36394639363044362D344446342D343946362D394244322D3234314243333846323333332F76657274696365732E62696E504B010214001400060808
310
00CC70623BF270F13306000000040000003600000000000000000000000000780E00006662782F36394639363044362D344446342D343946362D394244322D3234314243333846323333332F747269616E676C65732E62696E504B01021400140006080000CC70623B00000000000000000000000037000000000000000000
310
00000000D20E00006662782F36394639363044362D344446342D343946362D394244322D3234314243333846323333332F617474726962757465732E62696E504B01021400140006080800CC70623B08DA0BD190000000410100003600000000000000000000000000270F00006662782F36394639363044362D344446342D
310
343946362D394244322D3234314243333846323333332F6469726563746F72792E786D6C504B01021400140006080800CC70623BCA768048FE000000A00100003B000000000000000000000000000B1000006662782F36394639363044362D344446342D343946362D394244322D3234314243333846323333332F7265736F
310
75726365732F636F72652E786D6C504B0506000000000E000E0080040000621100000000
  0
XRECORD
  5
176
102
{ACAD_REACTORS
330
173
102
}
330
173
100
AcDbXrecord
280
     1
270
     1
271
     1
  0
XRECORD
  5
177
102
{ACAD_REACTORS
330
173
102
}
330
173
100
AcDbXrecord
280
     1
270
     1
271
     1
  0
XRECORD
  5
A2B2
102
{ACAD_REACTORS
330
A2B1
102
}
330
A2B1
100
AcDbXrecord
280
     1
102
ACAD_ROUNDTRIP_2012_MLEADER_STYLE
298
     1
  0
XRECORD
  5
A2C4
102
{ACAD_REACTORS
330
A2C3
102
}
330
A2C3
100
AcDbXrecord
280
     1
102
DISPLAYNAME
  1
Metric50
102
FLAGS
 90
        0
  0
CELLSTYLEMAP
  5
A284
102
{ACAD_REACTORS
330
162
102
}
330
162
100
AcDbCellStyleMap
 90
        3
300
CELLSTYLE
  1
TABLEFORMAT_BEGIN
 90
        5
170
     1
 91
        0
 92
    32768
 62
   257
 93
        1
300
CONTENTFORMAT
  1
CONTENTFORMAT_BEGIN
 90
        0
 91
        0
 92
      512
 93
        0
300

 40
0.0
140
1.0
 94
        5
 62
     0
340
11
144
6.0
309
CONTENTFORMAT_END
171
     1
301
MARGIN
  1
CELLMARGIN_BEGIN
 40
1.5
 40
1.5
 40
1.5
 40
1.5
 40
4.5
 40
4.5
309
CELLMARGIN_END
 94
        6
 95
        1
302
GRIDFORMAT
  1
GRIDFORMAT_BEGIN
 90
        0
 91
        1
 62
     0
 92
       -2
340
14
 93
        0
 40
1.125
309
GRIDFORMAT_END
 95
        2
302
GRIDFORMAT
  1
GRIDFORMAT_BEGIN
 90
        0
 91
        1
 62
     0
 92
       -2
340
14
 93
        0
 40
1.125
309
GRIDFORMAT_END
 95
        4
302
GRIDFORMAT
  1
GRIDFORMAT_BEGIN
 90
        0
 91
        1
 62
     0
 92
       -2
340
14
 93
        0
 40
1.125
309
GRIDFORMAT_END
 95
        8
302
GRIDFORMAT
  1
GRIDFORMAT_BEGIN
 90
        0
 91
        1
 62
     0
 92
       -2
340
14
 93
        0
 40
1.125
309
GRIDFORMAT_END
 95
       16
302
GRIDFORMAT
  1
GRIDFORMAT_BEGIN
 90
        0
 91
        1
 62
     0
 92
       -2
340
14
 93
        0
 40
1.125
309
GRIDFORMAT_END
 95
       32
302
GRIDFORMAT
  1
GRIDFORMAT_BEGIN
 90
        0
 91
        1
 62
     0
 92
       -2
340
14
 93
        0
 40
1.125
309
GRIDFORMAT_END
309
TABLEFORMAT_END
  1
CELLSTYLE_BEGIN
 90
        1
 91
        1
300
_TITLE
309
CELLSTYLE_END
300
CELLSTYLE
  1
TABLEFORMAT_BEGIN
 90
        5
170
     1
 91
        0
 92
        0
 62
   257
 93
        1
300
CONTENTFORMAT
  1
CONTENTFORMAT_BEGIN
 90
        0
 91
        0
 92
      512
 93
        0
300

 40
0.0
140
1.0
 94
        5
 62
     0
340
11
144
4.5
309
CONTENTFORMAT_END
171
     1
301
MARGIN
  1
CELLMARGIN_BEGIN
 40
1.5
 40
1.5
 40
1.5
 40
1.5
 40
4.5
 40
4.5
309
CELLMARGIN_END
 94
        6
 95
        1
302
GRIDFORMAT
  1
GRIDFORMAT_BEGIN
 90
        0
 91
        1
 62
     0
 92
       -2
340
14
 93
        0
 40
1.125
309
GRIDFORMAT_END
 95
        2
302
GRIDFORMAT
  1
GRIDFORMAT_BEGIN
 90
        0
 91
        1
 62
     0
 92
       -2
340
14
 93
        0
 40
1.125
309
GRIDFORMAT_END
 95
        4
302
GRIDFORMAT
  1
GRIDFORMAT_BEGIN
 90
        0
 91
        1
 62
     0
 92
       -2
340
14
 93
        0
 40
1.125
309
GRIDFORMAT_END
 95
        8
302
GRIDFORMAT
  1
GRIDFORMAT_BEGIN
 90
        0
 91
        1
 62
     0
 92
       -2
340
14
 93
        0
 40
1.125
309
GRIDFORMAT_END
 95
       16
302
GRIDFORMAT
  1
GRIDFORMAT_BEGIN
 90
        0
 91
        1
 62
     0
 92
       -2
340
14
 93
        0
 40
1.125
309
GRIDFORMAT_END
 95
       32
302
GRIDFORMAT
  1
GRIDFORMAT_BEGIN
 90
        0
 91
        1
 62
     0
 92
       -2
340
14
 93
        0
 40
1.125
309
GRIDFORMAT_END
309
TABLEFORMAT_END
  1
CELLSTYLE_BEGIN
 90
        2
 91
        1
300
_HEADER
309
CELLSTYLE_END
300
CELLSTYLE
  1
TABLEFORMAT_BEGIN
 90
        5
170
     1
 91
        0
 92
        0
 62
   257
 93
        1
300
CONTENTFORMAT
  1
CONTENTFORMAT_BEGIN
 90
        0
 91
        0
 92
      512
 93
        0
300

 40
0.0
140
1.0
 94
        2
 62
     0
340
11
144
4.5
309
CONTENTFORMAT_END
171
     1
301
MARGIN
  1
CELLMARGIN_BEGIN
 40
1.5
 40
1.5
 40
1.5
 40
1.5
 40
4.5
 40
4.5
309
CELLMARGIN_END
 94
        6
 95
        1
302
GRIDFORMAT
  1
GRIDFORMAT_BEGIN
 90
        0
 91
        1
 62
     0
 92
       -2
340
14
 93
        0
 40
1.125
309
GRIDFORMAT_END
 95
        2
302
GRIDFORMAT
  1
GRIDFORMAT_BEGIN
 90
        0
 91
        1
 62
     0
 92
       -2
340
14
 93
        0
 40
1.125
309
GRIDFORMAT_END
 95
        4
302
GRIDFORMAT
  1
GRIDFORMAT_BEGIN
 90
        0
 91
        1
 62
     0
 92
       -2
340
14
 93
        0
 40
1.125
309
GRIDFORMAT_END
 95
        8
302
GRIDFORMAT
  1
GRIDFORMAT_BEGIN
 90
        0
 91
        1
 62
     0
 92
       -2
340
14
 93
        0
 40
1.125
309
GRIDFORMAT_END
 95
       16
302
GRIDFORMAT
  1
GRIDFORMAT_BEGIN
 90
        0
 91
        1
 62
     0
 92
       -2
340
14
 93
        0
 40
1.125
309
GRIDFORMAT_END
 95
       32
302
GRIDFORMAT
  1
GRIDFORMAT_BEGIN
 90
        0
 91
        1
 62
     0
 92
       -2
340
14
 93
        0
 40
1.125
309
GRIDFORMAT_END
309
TABLEFORMAT_END
  1
CELLSTYLE_BEGIN
 90
        3
 91
        2
300
_DATA
309
CELLSTYLE_END
  0
XRECORD
  5
A289
102
{ACAD_REACTORS
330
162
102
}
330
162
100
AcDbXrecord
280
     1
102
ACAD_ROUNDTRIP_PRE2007_TABLESTYLE
 90
      512
 91
        0
  1

 92
      512
 93
        0
  2

 94
      512
 95
        0
  3

  0
XRECORD
  5
A29C
102
{ACAD_REACTORS
330
A29B
102
}
330
A29B
100
AcDbXrecord
280
     1
102
RTVSPost2010Prop28
280
     1
102
RTVSPost2010PropOp28
 70
     1
102
RTVSPost2010Prop29
280
     1
102
RTVSPost2010PropOp29
 70
     1
102
RTVSPost2010Prop30
280
     0
102
RTVSPost2010PropOp30
 70
     1
102
RTVSPost2010Prop31
280
     0
102
RTVSPost2010PropOp31
 70
     1
102
RTVSPost2010Prop32
280
     0
102
RTVSPost2010PropOp32
 70
     1
102
RTVSPost2010Prop33
280
     0
102
RTVSPost2010PropOp33
 70
     1
102
RTVSPost2010Prop34
280
     0
102
RTVSPost2010PropOp34
 70
     1
102
RTVSPost2010Prop35
280
     0
102
RTVSPost2010PropOp35
 70
     1
102
RTVSPost2010Prop36
280
     0
102
RTVSPost2010PropOp36
 70
     1
102
RTVSPost2010Prop37
 90
       50
102
RTVSPost2010PropOp37
 70
     1
102
RTVSPost2010Prop38
140
0.0
102
RTVSPost2010PropOp38
 70
     1
102
RTVSPost2010Prop39
140
1.0
102
RTVSPost2010PropOp39
 70
     1
102
RTVSPost2010Prop40
 90
        0
102
RTVSPost2010PropOp40
 70
     1
102
RTVSPost2010Prop41ColorIndex
 90
       18
102
RTVSPost2010Prop41ColorRGB
 90
        0
102
RTVSPost2010PropOp41
 70
     1
102
RTVSPost2010Prop42
 90
       50
102
RTVSPost2010PropOp42
 70
     1
102
RTVSPost2010Prop43
 90
        3
102
RTVSPost2010PropOp43
 70
     1
102
RTVSPost2010Prop44ColorIndex
 90
        5
102
RTVSPost2010Prop44ColorRGB
 90
      255
102
RTVSPost2010PropOp44
 70
     1
102
RTVSPost2010Prop45
280
     0
102
RTVSPost2010PropOp45
 70
     1
102
RTVSPost2010Prop46
 90
       50
102
RTVSPost2010PropOp46
 70
     1
102
RTVSPost2010Prop47
 90
       50
102
RTVSPost2010PropOp47
 70
     1
102
RTVSPost2010Prop48
 90
       50
102
RTVSPost2010PropOp48
 70
     1
102
RTVSPost2010Prop49
280
     0
102
RTVSPost2010PropOp49
 70
     1
102
RTVSPost2010Prop50
 90
       50
102
RTVSPost2010PropOp50
 70
     1
102
RTVSPost2010Prop51ColorIndex
 90
      256
102
RTVSPost2010Prop51ColorRGB
 90
-16777216
102
RTVSPost2010PropOp51
 70
     0
102
RTVSPost2010Prop52
140
1.0
102
RTVSPost2010PropOp52
 70
     0
102
RTVSPost2010Prop53
 90
        2
102
RTVSPost2010PropOp53
 70
     1
102
RTVSPost2010Prop54
  1
strokes_ogs.tif
102
RTVSPost2010PropOp54
 70
     1
102
RTVSPost2010Prop55
280
     0
102
RTVSPost2010PropOp55
 70
     1
102
RTVSPost2010Prop56
140
1.0
102
RTVSPost2010PropOp56
 70
     1
102
RTVSPost2010Prop57
140
1.0
102
RTVSPost2010PropOp57
 70
     1
102
RTVSPropertyOp0
 70
     1
102
RTVSPropertyOp1
 70
     1
102
RTVSPropertyOp2
 70
     1
102
RTVSPropertyOp3
 70
     1
102
RTVSPropertyOp4
 70
     1
102
RTVSPropertyOp5
 70
     1
102
RTVSPropertyOp6
 70
     1
102
RTVSPropertyOp7
 70
     1
102
RTVSPropertyOp8
 70
     1
102
RTVSPropertyOp9
 70
     1
102
RTVSPropertyOp10
 70
     1
102
RTVSPropertyOp11
 70
     1
102
RTVSPropertyOp12
 70
     1
102
RTVSPropertyOp13
 70
     1
102
RTVSPropertyOp14
 70
     1
102
RTVSPropertyOp15
 70
     1
102
RTVSPropertyOp16
 70
     1
102
RTVSPropertyOp17
 70
     1
102
RTVSPropertyOp18
 70
     1
102
RTVSPropertyOp19
 70
     1
102
RTVSPropertyOp20
 70
     1
102
RTVSPropertyOp21
 70
     1
102
RTVSPropertyOp22
 70
     1
102
RTVSPropertyOp23
 70
     1
102
RTVSPropertyOp24
 70
     1
102
RTVSPropertyOp25
 70
     1
102
RTVSPropertyOp26
 70
     1
102
RTVSPropertyOp27
 70
     1
102
RTVSPropertyOp28
 70
     1
102
RTVSPropertyOp29
 70
     1
102
RTVSPropertyOp30
 70
     1
102
RTVSPropertyOp31
 70
     1
102
RTVSPropertyOp32
 70
     1
102
RTVSPropertyOp33
 70
     1
102
RTVSPropertyOp34
 70
     1
102
RTVSPropertyOp35
 70
     1
102
RTVSPropertyOp36
 70
     1
102
RTVSPropertyOp37
 70
     1
102
RTVSPropertyOp38
 70
     1
102
RTVSPropertyOp39
 70
     1
102
RTVSPropertyOp40
 70
     1
102
RTVSPropertyOp41
 70
     1
102
RTVSPropertyOp42
 70
     1
102
RTVSPropertyOp43
 70
     1
102
RTVSPropertyOp44
 70
     1
102
RTVSPropertyOp45
 70
     1
102
RTVSPropertyOp46
 70
     1
102
RTVSPropertyOp47
 70
     1
102
RTVSPropertyOp48
 70
     1
102
RTVSPropertyOp49
 70
     1
102
RTVSPropertyOp50
 70
     1
102
RTVSPropertyOp51
 70
     0
102
RTVSPropertyOp52
 70
     0
102
RTVSPropertyOp53
 70
     1
102
RTVSPropertyOp54
 70
     1
102
RTVSPropertyOp55
 70
     1
102
RTVSPropertyOp56
 70
     1
102
RTVSPropertyOp57
 70
     1
102
RTVSPropertyOp58
 70
     1
102
RTVSPropertyOp59
 70
     1
102
RTVSPropertyOp60
 70
     1
102
RTVSPropertyOp61
 70
     1
102
RTVSPropertyOp62
 70
     1
  0
XRECORD
  5
A29A
102
{ACAD_REACTORS
330
A299
102
}
330
A299
100
AcDbXrecord
280
     1
102
RTVSPost2010Prop28
280
     0
102
RTVSPost2010PropOp28
 70
     1
102
RTVSPost2010Prop29
280
     1
102
RTVSPost2010PropOp29
 70
     1
102
RTVSPost2010Prop30
280
     1
102
RTVSPost2010PropOp30
 70
     1
102
RTVSPost2010Prop31
280
     0
102
RTVSPost2010PropOp31
 70
     1
102
RTVSPost2010Prop32
280
     0
102
RTVSPost2010PropOp32
 70
     1
102
RTVSPost2010Prop33
280
     0
102
RTVSPost2010PropOp33
 70
     1
102
RTVSPost2010Prop34
280
     0
102
RTVSPost2010PropOp34
 70
     1
102
RTVSPost2010Prop35
280
     0
102
RTVSPost2010PropOp35
 70
     1
102
RTVSPost2010Prop36
280
     0
102
RTVSPost2010PropOp36
 70
     1
102
RTVSPost2010Prop37
 90
       50
102
RTVSPost2010PropOp37
 70
     1
102
RTVSPost2010Prop38
140
0.0
102
RTVSPost2010PropOp38
 70
     1
102
RTVSPost2010Prop39
140
1.0
102
RTVSPost2010PropOp39
 70
     1
102
RTVSPost2010Prop40
 90
        0
102
RTVSPost2010PropOp40
 70
     1
102
RTVSPost2010Prop41ColorIndex
 90
       18
102
RTVSPost2010Prop41ColorRGB
 90
        0
102
RTVSPost2010PropOp41
 70
     1
102
RTVSPost2010Prop42
 90
       50
102
RTVSPost2010PropOp42
 70
     1
102
RTVSPost2010Prop43
 90
        3
102
RTVSPost2010PropOp43
 70
     1
102
RTVSPost2010Prop44ColorIndex
 90
        5
102
RTVSPost2010Prop44ColorRGB
 90
      255
102
RTVSPost2010PropOp44
 70
     1
102
RTVSPost2010Prop45
280
     0
102
RTVSPost2010PropOp45
 70
     1
102
RTVSPost2010Prop46
 90
       50
102
RTVSPost2010PropOp46
 70
     1
102
RTVSPost2010Prop47
 90
       50
102
RTVSPost2010PropOp47
 70
     1
102
RTVSPost2010Prop48
 90
       50
102
RTVSPost2010PropOp48
 70
     1
102
RTVSPost2010Prop49
280
     0
102
RTVSPost2010PropOp49
 70
     1
102
RTVSPost2010Prop50
 90
       50
102
RTVSPost2010PropOp50
 70
     1
102
RTVSPost2010Prop51ColorIndex
 90
      256
102
RTVSPost2010Prop51ColorRGB
 90
-16777216
102
RTVSPost2010PropOp51
 70
     0
102
RTVSPost2010Prop52
140
1.0
102
RTVSPost2010PropOp52
 70
     0
102
RTVSPost2010Prop53
 90
        2
102
RTVSPost2010PropOp53
 70
     1
102
RTVSPost2010Prop54
  1
strokes_ogs.tif
102
RTVSPost2010PropOp54
 70
     1
102
RTVSPost2010Prop55
280
     0
102
RTVSPost2010PropOp55
 70
     1
102
RTVSPost2010Prop56
140
1.0
102
RTVSPost2010PropOp56
 70
     1
102
RTVSPost2010Prop57
140
1.0
102
RTVSPost2010PropOp57
 70
     1
102
RTVSPropertyOp0
 70
     1
102
RTVSPropertyOp1
 70
     1
102
RTVSPropertyOp2
 70
     1
102
RTVSPropertyOp3
 70
     1
102
RTVSPropertyOp4
 70
     1
102
RTVSPropertyOp5
 70
     1
102
RTVSPropertyOp6
 70
     1
102
RTVSPropertyOp7
 70
     1
102
RTVSPropertyOp8
 70
     1
102
RTVSPropertyOp9
 70
     1
102
RTVSPropertyOp10
 70
     1
102
RTVSPropertyOp11
 70
     1
102
RTVSPropertyOp12
 70
     1
102
RTVSPropertyOp13
 70
     1
102
RTVSPropertyOp14
 70
     1
102
RTVSPropertyOp15
 70
     1
102
RTVSPropertyOp16
 70
     1
102
RTVSPropertyOp17
 70
     1
102
RTVSPropertyOp18
 70
     1
102
RTVSPropertyOp19
 70
     1
102
RTVSPropertyOp20
 70
     1
102
RTVSPropertyOp21
 70
     1
102
RTVSPropertyOp22
 70
     1
102
RTVSPropertyOp23
 70
     1
102
RTVSPropertyOp24
 70
     1
102
RTVSPropertyOp25
 70
     1
102
RTVSPropertyOp26
 70
     1
102
RTVSPropertyOp27
 70
     1
102
RTVSPropertyOp28
 70
     1
102
RTVSPropertyOp29
 70
     1
102
RTVSPropertyOp30
 70
     1
102
RTVSPropertyOp31
 70
     1
102
RTVSPropertyOp32
 70
     1
102
RTVSPropertyOp33
 70
     1
102
RTVSPropertyOp34
 70
     1
102
RTVSPropertyOp35
 70
     1
102
RTVSPropertyOp36
 70
     1
102
RTVSPropertyOp37
 70
     1
102
RTVSPropertyOp38
 70
     1
102
RTVSPropertyOp39
 70
     1
102
RTVSPropertyOp40
 70
     1
102
RTVSPropertyOp41
 70
     1
102
RTVSPropertyOp42
 70
     1
102
RTVSPropertyOp43
 70
     1
102
RTVSPropertyOp44
 70
     1
102
RTVSPropertyOp45
 70
     1
102
RTVSPropertyOp46
 70
     1
102
RTVSPropertyOp47
 70
     1
102
RTVSPropertyOp48
 70
     1
102
RTVSPropertyOp49
 70
     1
102
RTVSPropertyOp50
 70
     1
102
RTVSPropertyOp51
 70
     0
102
RTVSPropertyOp52
 70
     0
102
RTVSPropertyOp53
 70
     1
102
RTVSPropertyOp54
 70
     1
102
RTVSPropertyOp55
 70
     1
102
RTVSPropertyOp56
 70
     1
102
RTVSPropertyOp57
 70
     1
102
RTVSPropertyOp58
 70
     1
102
RTVSPropertyOp59
 70
     1
102
RTVSPropertyOp60
 70
     1
102
RTVSPropertyOp61
 70
     1
102
RTVSPropertyOp62
 70
     1
  0
XRECORD
  5
A2A8
102
{ACAD_REACTORS
330
A2A7
102
}
330
A2A7
100
AcDbXrecord
280
     1
102
RTVSPost2010Prop28
280
     0
102
RTVSPost2010PropOp28
 70
     1
102
RTVSPost2010Prop29
280
     1
102
RTVSPost2010PropOp29
 70
     1
102
RTVSPost2010Prop30
280
     1
102
RTVSPost2010PropOp30
 70
     1
102
RTVSPost2010Prop31
280
     0
102
RTVSPost2010PropOp31
 70
     1
102
RTVSPost2010Prop32
280
     0
102
RTVSPost2010PropOp32
 70
     1
102
RTVSPost2010Prop33
280
     0
102
RTVSPost2010PropOp33
 70
     1
102
RTVSPost2010Prop34
280
     0
102
RTVSPost2010PropOp34
 70
     1
102
RTVSPost2010Prop35
280
     0
102
RTVSPost2010PropOp35
 70
     1
102
RTVSPost2010Prop36
280
     0
102
RTVSPost2010PropOp36
 70
     1
102
RTVSPost2010Prop37
 90
       50
102
RTVSPost2010PropOp37
 70
     1
102
RTVSPost2010Prop38
140
0.0
102
RTVSPost2010PropOp38
 70
     1
102
RTVSPost2010Prop39
140
1.0
102
RTVSPost2010PropOp39
 70
     1
102
RTVSPost2010Prop40
 90
        0
102
RTVSPost2010PropOp40
 70
     1
102
RTVSPost2010Prop41ColorIndex
 90
       18
102
RTVSPost2010Prop41ColorRGB
 90
        0
102
RTVSPost2010PropOp41
 70
     1
102
RTVSPost2010Prop42
 90
       50
102
RTVSPost2010PropOp42
 70
     1
102
RTVSPost2010Prop43
 90
        3
102
RTVSPost2010PropOp43
 70
     1
102
RTVSPost2010Prop44ColorIndex
 90
        5
102
RTVSPost2010Prop44ColorRGB
 90
      255
102
RTVSPost2010PropOp44
 70
     1
102
RTVSPost2010Prop45
280
     0
102
RTVSPost2010PropOp45
 70
     1
102
RTVSPost2010Prop46
 90
       50
102
RTVSPost2010PropOp46
 70
     1
102
RTVSPost2010Prop47
 90
       50
102
RTVSPost2010PropOp47
 70
     1
102
RTVSPost2010Prop48
 90
       50
102
RTVSPost2010PropOp48
 70
     1
102
RTVSPost2010Prop49
280
     0
102
RTVSPost2010PropOp49
 70
     1
102
RTVSPost2010Prop50
 90
       50
102
RTVSPost2010PropOp50
 70
     1
102
RTVSPost2010Prop51ColorIndex
 90
      256
102
RTVSPost2010Prop51ColorRGB
 90
-16777216
102
RTVSPost2010PropOp51
 70
     0
102
RTVSPost2010Prop52
140
1.0
102
RTVSPost2010PropOp52
 70
     0
102
RTVSPost2010Prop53
 90
        2
102
RTVSPost2010PropOp53
 70
     1
102
RTVSPost2010Prop54
  1
strokes_ogs.tif
102
RTVSPost2010PropOp54
 70
     1
102
RTVSPost2010Prop55
280
     0
102
RTVSPost2010PropOp55
 70
     1
102
RTVSPost2010Prop56
140
1.0
102
RTVSPost2010PropOp56
 70
     1
102
RTVSPost2010Prop57
140
1.0
102
RTVSPost2010PropOp57
 70
     1
102
RTVSPropertyOp0
 70
     1
102
RTVSPropertyOp1
 70
     1
102
RTVSPropertyOp2
 70
     1
102
RTVSPropertyOp3
 70
     1
102
RTVSPropertyOp4
 70
     1
102
RTVSPropertyOp5
 70
     1
102
RTVSPropertyOp6
 70
     1
102
RTVSPropertyOp7
 70
     1
102
RTVSPropertyOp8
 70
     1
102
RTVSPropertyOp9
 70
     1
102
RTVSPropertyOp10
 70
     1
102
RTVSPropertyOp11
 70
     1
102
RTVSPropertyOp12
 70
     1
102
RTVSPropertyOp13
 70
     1
102
RTVSPropertyOp14
 70
     1
102
RTVSPropertyOp15
 70
     1
102
RTVSPropertyOp16
 70
     1
102
RTVSPropertyOp17
 70
     1
102
RTVSPropertyOp18
 70
     1
102
RTVSPropertyOp19
 70
     1
102
RTVSPropertyOp20
 70
     1
102
RTVSPropertyOp21
 70
     1
102
RTVSPropertyOp22
 70
     1
102
RTVSPropertyOp23
 70
     1
102
RTVSPropertyOp24
 70
     1
102
RTVSPropertyOp25
 70
     1
102
RTVSPropertyOp26
 70
     1
102
RTVSPropertyOp27
 70
     1
102
RTVSPropertyOp28
 70
     1
102
RTVSPropertyOp29
 70
     1
102
RTVSPropertyOp30
 70
     1
102
RTVSPropertyOp31
 70
     1
102
RTVSPropertyOp32
 70
     1
102
RTVSPropertyOp33
 70
     1
102
RTVSPropertyOp34
 70
     1
102
RTVSPropertyOp35
 70
     1
102
RTVSPropertyOp36
 70
     1
102
RTVSPropertyOp37
 70
     1
102
RTVSPropertyOp38
 70
     1
102
RTVSPropertyOp39
 70
     1
102
RTVSPropertyOp40
 70
     1
102
RTVSPropertyOp41
 70
     1
102
RTVSPropertyOp42
 70
     1
102
RTVSPropertyOp43
 70
     1
102
RTVSPropertyOp44
 70
     1
102
RTVSPropertyOp45
 70
     1
102
RTVSPropertyOp46
 70
     1
102
RTVSPropertyOp47
 70
     1
102
RTVSPropertyOp48
 70
     1
102
RTVSPropertyOp49
 70
     1
102
RTVSPropertyOp50
 70
     1
102
RTVSPropertyOp51
 70
     0
102
RTVSPropertyOp52
 70
     0
102
RTVSPropertyOp53
 70
     1
102
RTVSPropertyOp54
 70
     1
102
RTVSPropertyOp55
 70
     1
102
RTVSPropertyOp56
 70
     1
102
RTVSPropertyOp57
 70
     1
102
RTVSPropertyOp58
 70
     1
102
RTVSPropertyOp59
 70
     1
102
RTVSPropertyOp60
 70
     1
102
RTVSPropertyOp61
 70
     1
102
RTVSPropertyOp62
 70
     1
  0
XRECORD
  5
A2B0
102
{ACAD_REACTORS
330
A2AF
102
}
330
A2AF
100
AcDbXrecord
280
     1
102
RTVSPost2010Prop28
280
     0
102
RTVSPost2010PropOp28
 70
     1
102
RTVSPost2010Prop29
280
     1
102
RTVSPost2010PropOp29
 70
     1
102
RTVSPost2010Prop30
280
     1
102
RTVSPost2010PropOp30
 70
     1
102
RTVSPost2010Prop31
280
     0
102
RTVSPost2010PropOp31
 70
     1
102
RTVSPost2010Prop32
280
     0
102
RTVSPost2010PropOp32
 70
     1
102
RTVSPost2010Prop33
280
     0
102
RTVSPost2010PropOp33
 70
     1
102
RTVSPost2010Prop34
280
     0
102
RTVSPost2010PropOp34
 70
     1
102
RTVSPost2010Prop35
280
     0
102
RTVSPost2010PropOp35
 70
     1
102
RTVSPost2010Prop36
280
     0
102
RTVSPost2010PropOp36
 70
     1
102
RTVSPost2010Prop37
 90
       50
102
RTVSPost2010PropOp37
 70
     1
102
RTVSPost2010Prop38
140
0.0
102
RTVSPost2010PropOp38
 70
     1
102
RTVSPost2010Prop39
140
1.0
102
RTVSPost2010PropOp39
 70
     1
102
RTVSPost2010Prop40
 90
        0
102
RTVSPost2010PropOp40
 70
     1
102
RTVSPost2010Prop41ColorIndex
 90
       18
102
RTVSPost2010Prop41ColorRGB
 90
        0
102
RTVSPost2010PropOp41
 70
     1
102
RTVSPost2010Prop42
 90
       50
102
RTVSPost2010PropOp42
 70
     1
102
RTVSPost2010Prop43
 90
        3
102
RTVSPost2010PropOp43
 70
     1
102
RTVSPost2010Prop44ColorIndex
 90
        5
102
RTVSPost2010Prop44ColorRGB
 90
      255
102
RTVSPost2010PropOp44
 70
     1
102
RTVSPost2010Prop45
280
     0
102
RTVSPost2010PropOp45
 70
     1
102
RTVSPost2010Prop46
 90
       50
102
RTVSPost2010PropOp46
 70
     1
102
RTVSPost2010Prop47
 90
       50
102
RTVSPost2010PropOp47
 70
     1
102
RTVSPost2010Prop48
 90
       50
102
RTVSPost2010PropOp48
 70
     1
102
RTVSPost2010Prop49
280
     0
102
RTVSPost2010PropOp49
 70
     1
102
RTVSPost2010Prop50
 90
       50
102
RTVSPost2010PropOp50
 70
     1
102
RTVSPost2010Prop51ColorIndex
 90
      256
102
RTVSPost2010Prop51ColorRGB
 90
-16777216
102
RTVSPost2010PropOp51
 70
     0
102
RTVSPost2010Prop52
140
1.0
102
RTVSPost2010PropOp52
 70
     0
102
RTVSPost2010Prop53
 90
        2
102
RTVSPost2010PropOp53
 70
     1
102
RTVSPost2010Prop54
  1
strokes_ogs.tif
102
RTVSPost2010PropOp54
 70
     1
102
RTVSPost2010Prop55
280
     0
102
RTVSPost2010PropOp55
 70
     1
102
RTVSPost2010Prop56
140
1.0
102
RTVSPost2010PropOp56
 70
     1
102
RTVSPost2010Prop57
140
1.0
102
RTVSPost2010PropOp57
 70
     1
102
RTVSPropertyOp0
 70
     1
102
RTVSPropertyOp1
 70
     1
102
RTVSPropertyOp2
 70
     1
102
RTVSPropertyOp3
 70
     1
102
RTVSPropertyOp4
 70
     1
102
RTVSPropertyOp5
 70
     1
102
RTVSPropertyOp6
 70
     1
102
RTVSPropertyOp7
 70
     1
102
RTVSPropertyOp8
 70
     1
102
RTVSPropertyOp9
 70
     1
102
RTVSPropertyOp10
 70
     1
102
RTVSPropertyOp11
 70
     1
102
RTVSPropertyOp12
 70
     1
102
RTVSPropertyOp13
 70
     1
102
RTVSPropertyOp14
 70
     1
102
RTVSPropertyOp15
 70
     1
102
RTVSPropertyOp16
 70
     1
102
RTVSPropertyOp17
 70
     1
102
RTVSPropertyOp18
 70
     1
102
RTVSPropertyOp19
 70
     1
102
RTVSPropertyOp20
 70
     1
102
RTVSPropertyOp21
 70
     1
102
RTVSPropertyOp22
 70
     1
102
RTVSPropertyOp23
 70
     1
102
RTVSPropertyOp24
 70
     1
102
RTVSPropertyOp25
 70
     1
102
RTVSPropertyOp26
 70
     1
102
RTVSPropertyOp27
 70
     1
102
RTVSPropertyOp28
 70
     1
102
RTVSPropertyOp29
 70
     1
102
RTVSPropertyOp30
 70
     1
102
RTVSPropertyOp31
 70
     1
102
RTVSPropertyOp32
 70
     1
102
RTVSPropertyOp33
 70
     1
102
RTVSPropertyOp34
 70
     1
102
RTVSPropertyOp35
 70
     1
102
RTVSPropertyOp36
 70
     1
102
RTVSPropertyOp37
 70
     1
102
RTVSPropertyOp38
 70
     1
102
RTVSPropertyOp39
 70
     1
102
RTVSPropertyOp40
 70
     1
102
RTVSPropertyOp41
 70
     1
102
RTVSPropertyOp42
 70
     1
102
RTVSPropertyOp43
 70
     1
102
RTVSPropertyOp44
 70
     1
102
RTVSPropertyOp45
 70
     1
102
RTVSPropertyOp46
 70
     1
102
RTVSPropertyOp47
 70
     1
102
RTVSPropertyOp48
 70
     1
102
RTVSPropertyOp49
 70
     1
102
RTVSPropertyOp50
 70
     1
102
RTVSPropertyOp51
 70
     0
102
RTVSPropertyOp52
 70
     0
102
RTVSPropertyOp53
 70
     1
102
RTVSPropertyOp54
 70
     1
102
RTVSPropertyOp55
 70
     1
102
RTVSPropertyOp56
 70
     1
102
RTVSPropertyOp57
 70
     1
102
RTVSPropertyOp58
 70
     1
102
RTVSPropertyOp59
 70
     1
102
RTVSPropertyOp60
 70
     1
102
RTVSPropertyOp61
 70
     1
102
RTVSPropertyOp62
 70
     1
  0
XRECORD
  5
A2A2
102
{ACAD_REACTORS
330
A2A1
102
}
330
A2A1
100
AcDbXrecord
280
     1
102
RTVSPost2010Prop28
280
     0
102
RTVSPost2010PropOp28
 70
     1
102
RTVSPost2010Prop29
280
     1
102
RTVSPost2010PropOp29
 70
     1
102
RTVSPost2010Prop30
280
     1
102
RTVSPost2010PropOp30
 70
     1
102
RTVSPost2010Prop31
280
     0
102
RTVSPost2010PropOp31
 70
     1
102
RTVSPost2010Prop32
280
     0
102
RTVSPost2010PropOp32
 70
     1
102
RTVSPost2010Prop33
280
     0
102
RTVSPost2010PropOp33
 70
     1
102
RTVSPost2010Prop34
280
     0
102
RTVSPost2010PropOp34
 70
     1
102
RTVSPost2010Prop35
280
     0
102
RTVSPost2010PropOp35
 70
     1
102
RTVSPost2010Prop36
280
     0
102
RTVSPost2010PropOp36
 70
     1
102
RTVSPost2010Prop37
 90
       50
102
RTVSPost2010PropOp37
 70
     1
102
RTVSPost2010Prop38
140
0.0
102
RTVSPost2010PropOp38
 70
     1
102
RTVSPost2010Prop39
140
1.0
102
RTVSPost2010PropOp39
 70
     1
102
RTVSPost2010Prop40
 90
        0
102
RTVSPost2010PropOp40
 70
     1
102
RTVSPost2010Prop41ColorIndex
 90
       18
102
RTVSPost2010Prop41ColorRGB
 90
        0
102
RTVSPost2010PropOp41
 70
     1
102
RTVSPost2010Prop42
 90
       50
102
RTVSPost2010PropOp42
 70
     1
102
RTVSPost2010Prop43
 90
        3
102
RTVSPost2010PropOp43
 70
     1
102
RTVSPost2010Prop44ColorIndex
 90
        5
102
RTVSPost2010Prop44ColorRGB
 90
      255
102
RTVSPost2010PropOp44
 70
     1
102
RTVSPost2010Prop45
280
     0
102
RTVSPost2010PropOp45
 70
     1
102
RTVSPost2010Prop46
 90
       50
102
RTVSPost2010PropOp46
 70
     1
102
RTVSPost2010Prop47
 90
       50
102
RTVSPost2010PropOp47
 70
     1
102
RTVSPost2010Prop48
 90
       50
102
RTVSPost2010PropOp48
 70
     1
102
RTVSPost2010Prop49
280
     0
102
RTVSPost2010PropOp49
 70
     1
102
RTVSPost2010Prop50
 90
       50
102
RTVSPost2010PropOp50
 70
     1
102
RTVSPost2010Prop51ColorIndex
 90
      256
102
RTVSPost2010Prop51ColorRGB
 90
-16777216
102
RTVSPost2010PropOp51
 70
     0
102
RTVSPost2010Prop52
140
1.0
102
RTVSPost2010PropOp52
 70
     0
102
RTVSPost2010Prop53
 90
        2
102
RTVSPost2010PropOp53
 70
     1
102
RTVSPost2010Prop54
  1
strokes_ogs.tif
102
RTVSPost2010PropOp54
 70
     1
102
RTVSPost2010Prop55
280
     0
102
RTVSPost2010PropOp55
 70
     1
102
RTVSPost2010Prop56
140
1.0
102
RTVSPost2010PropOp56
 70
     1
102
RTVSPost2010Prop57
140
1.0
102
RTVSPost2010PropOp57
 70
     1
102
RTVSPropertyOp0
 70
     1
102
RTVSPropertyOp1
 70
     1
102
RTVSPropertyOp2
 70
     1
102
RTVSPropertyOp3
 70
     1
102
RTVSPropertyOp4
 70
     1
102
RTVSPropertyOp5
 70
     1
102
RTVSPropertyOp6
 70
     1
102
RTVSPropertyOp7
 70
     1
102
RTVSPropertyOp8
 70
     1
102
RTVSPropertyOp9
 70
     1
102
RTVSPropertyOp10
 70
     1
102
RTVSPropertyOp11
 70
     1
102
RTVSPropertyOp12
 70
     1
102
RTVSPropertyOp13
 70
     1
102
RTVSPropertyOp14
 70
     1
102
RTVSPropertyOp15
 70
     1
102
RTVSPropertyOp16
 70
     1
102
RTVSPropertyOp17
 70
     1
102
RTVSPropertyOp18
 70
     1
102
RTVSPropertyOp19
 70
     1
102
RTVSPropertyOp20
 70
     1
102
RTVSPropertyOp21
 70
     1
102
RTVSPropertyOp22
 70
     1
102
RTVSPropertyOp23
 70
     1
102
RTVSPropertyOp24
 70
     1
102
RTVSPropertyOp25
 70
     1
102
RTVSPropertyOp26
 70
     1
102
RTVSPropertyOp27
 70
     1
102
RTVSPropertyOp28
 70
     1
102
RTVSPropertyOp29
 70
     1
102
RTVSPropertyOp30
 70
     1
102
RTVSPropertyOp31
 70
     1
102
RTVSPropertyOp32
 70
     1
102
RTVSPropertyOp33
 70
     1
102
RTVSPropertyOp34
 70
     1
102
RTVSPropertyOp35
 70
     1
102
RTVSPropertyOp36
 70
     1
102
RTVSPropertyOp37
 70
     1
102
RTVSPropertyOp38
 70
     1
102
RTVSPropertyOp39
 70
     1
102
RTVSPropertyOp40
 70
     1
102
RTVSPropertyOp41
 70
     1
102
RTVSPropertyOp42
 70
     1
102
RTVSPropertyOp43
 70
     1
102
RTVSPropertyOp44
 70
     1
102
RTVSPropertyOp45
 70
     1
102
RTVSPropertyOp46
 70
     1
102
RTVSPropertyOp47
 70
     1
102
RTVSPropertyOp48
 70
     1
102
RTVSPropertyOp49
 70
     1
102
RTVSPropertyOp50
 70
     1
102
RTVSPropertyOp51
 70
     0
102
RTVSPropertyOp52
 70
     0
102
RTVSPropertyOp53
 70
     1
102
RTVSPropertyOp54
 70
     1
102
RTVSPropertyOp55
 70
     1
102
RTVSPropertyOp56
 70
     1
102
RTVSPropertyOp57
 70
     1
102
RTVSPropertyOp58
 70
     1
102
RTVSPropertyOp59
 70
     1
102
RTVSPropertyOp60
 70
     1
102
RTVSPropertyOp61
 70
     1
102
RTVSPropertyOp62
 70
     1
  0
XRECORD
  5
A2A6
102
{ACAD_REACTORS
330
A2A5
102
}
330
A2A5
100
AcDbXrecord
280
     1
102
RTVSPost2010Prop28
280
     0
102
RTVSPost2010PropOp28
 70
     1
102
RTVSPost2010Prop29
280
     1
102
RTVSPost2010PropOp29
 70
     1
102
RTVSPost2010Prop30
280
     1
102
RTVSPost2010PropOp30
 70
     1
102
RTVSPost2010Prop31
280
     0
102
RTVSPost2010PropOp31
 70
     1
102
RTVSPost2010Prop32
280
     0
102
RTVSPost2010PropOp32
 70
     1
102
RTVSPost2010Prop33
280
     0
102
RTVSPost2010PropOp33
 70
     1
102
RTVSPost2010Prop34
280
     0
102
RTVSPost2010PropOp34
 70
     1
102
RTVSPost2010Prop35
280
     0
102
RTVSPost2010PropOp35
 70
     1
102
RTVSPost2010Prop36
280
     0
102
RTVSPost2010PropOp36
 70
     1
102
RTVSPost2010Prop37
 90
       50
102
RTVSPost2010PropOp37
 70
     1
102
RTVSPost2010Prop38
140
0.0
102
RTVSPost2010PropOp38
 70
     1
102
RTVSPost2010Prop39
140
1.0
102
RTVSPost2010PropOp39
 70
     1
102
RTVSPost2010Prop40
 90
        0
102
RTVSPost2010PropOp40
 70
     1
102
RTVSPost2010Prop41ColorIndex
 90
       18
102
RTVSPost2010Prop41ColorRGB
 90
        0
102
RTVSPost2010PropOp41
 70
     1
102
RTVSPost2010Prop42
 90
       50
102
RTVSPost2010PropOp42
 70
     1
102
RTVSPost2010Prop43
 90
        3
102
RTVSPost2010PropOp43
 70
     1
102
RTVSPost2010Prop44ColorIndex
 90
        5
102
RTVSPost2010Prop44ColorRGB
 90
      255
102
RTVSPost2010PropOp44
 70
     1
102
RTVSPost2010Prop45
280
     0
102
RTVSPost2010PropOp45
 70
     1
102
RTVSPost2010Prop46
 90
       50
102
RTVSPost2010PropOp46
 70
     1
102
RTVSPost2010Prop47
 90
       50
102
RTVSPost2010PropOp47
 70
     1
102
RTVSPost2010Prop48
 90
       50
102
RTVSPost2010PropOp48
 70
     1
102
RTVSPost2010Prop49
280
     0
102
RTVSPost2010PropOp49
 70
     1
102
RTVSPost2010Prop50
 90
       50
102
RTVSPost2010PropOp50
 70
     1
102
RTVSPost2010Prop51ColorIndex
 90
      256
102
RTVSPost2010Prop51ColorRGB
 90
-16777216
102
RTVSPost2010PropOp51
 70
     0
102
RTVSPost2010Prop52
140
1.0
102
RTVSPost2010PropOp52
 70
     0
102
RTVSPost2010Prop53
 90
        2
102
RTVSPost2010PropOp53
 70
     1
102
RTVSPost2010Prop54
  1
strokes_ogs.tif
102
RTVSPost2010PropOp54
 70
     1
102
RTVSPost2010Prop55
280
     0
102
RTVSPost2010PropOp55
 70
     1
102
RTVSPost2010Prop56
140
1.0
102
RTVSPost2010PropOp56
 70
     1
102
RTVSPost2010Prop57
140
1.0
102
RTVSPost2010PropOp57
 70
     1
102
RTVSPropertyOp0
 70
     1
102
RTVSPropertyOp1
 70
     1
102
RTVSPropertyOp2
 70
     1
102
RTVSPropertyOp3
 70
     1
102
RTVSPropertyOp4
 70
     1
102
RTVSPropertyOp5
 70
     1
102
RTVSPropertyOp6
 70
     1
102
RTVSPropertyOp7
 70
     1
102
RTVSPropertyOp8
 70
     1
102
RTVSPropertyOp9
 70
     1
102
RTVSPropertyOp10
 70
     1
102
RTVSPropertyOp11
 70
     1
102
RTVSPropertyOp12
 70
     1
102
RTVSPropertyOp13
 70
     1
102
RTVSPropertyOp14
 70
     1
102
RTVSPropertyOp15
 70
     1
102
RTVSPropertyOp16
 70
     1
102
RTVSPropertyOp17
 70
     1
102
RTVSPropertyOp18
 70
     1
102
RTVSPropertyOp19
 70
     1
102
RTVSPropertyOp20
 70
     1
102
RTVSPropertyOp21
 70
     1
102
RTVSPropertyOp22
 70
     1
102
RTVSPropertyOp23
 70
     1
102
RTVSPropertyOp24
 70
     1
102
RTVSPropertyOp25
 70
     1
102
RTVSPropertyOp26
 70
     1
102
RTVSPropertyOp27
 70
     1
102
RTVSPropertyOp28
 70
     1
102
RTVSPropertyOp29
 70
     1
102
RTVSPropertyOp30
 70
     1
102
RTVSPropertyOp31
 70
     1
102
RTVSPropertyOp32
 70
     1
102
RTVSPropertyOp33
 70
     1
102
RTVSPropertyOp34
 70
     1
102
RTVSPropertyOp35
 70
     1
102
RTVSPropertyOp36
 70
     1
102
RTVSPropertyOp37
 70
     1
102
RTVSPropertyOp38
 70
     1
102
RTVSPropertyOp39
 70
     1
102
RTVSPropertyOp40
 70
     1
102
RTVSPropertyOp41
 70
     1
102
RTVSPropertyOp42
 70
     1
102
RTVSPropertyOp43
 70
     1
102
RTVSPropertyOp44
 70
     1
102
RTVSPropertyOp45
 70
     1
102
RTVSPropertyOp46
 70
     1
102
RTVSPropertyOp47
 70
     1
102
RTVSPropertyOp48
 70
     1
102
RTVSPropertyOp49
 70
     1
102
RTVSPropertyOp50
 70
     1
102
RTVSPropertyOp51
 70
     0
102
RTVSPropertyOp52
 70
     0
102
RTVSPropertyOp53
 70
     1
102
RTVSPropertyOp54
 70
     1
102
RTVSPropertyOp55
 70
     1
102
RTVSPropertyOp56
 70
     1
102
RTVSPropertyOp57
 70
     1
102
RTVSPropertyOp58
 70
     1
102
RTVSPropertyOp59
 70
     1
102
RTVSPropertyOp60
 70
     1
102
RTVSPropertyOp61
 70
     1
102
RTVSPropertyOp62
 70
     1
  0
XRECORD
  5
A2B8
102
{ACAD_REACTORS
330
A2B7
102
}
330
A2B7
100
AcDbXrecord
280
     1
102
RTVSPost2010Prop28
280
     0
102
RTVSPost2010PropOp28
 70
     1
102
RTVSPost2010Prop29
280
     1
102
RTVSPost2010PropOp29
 70
     1
102
RTVSPost2010Prop30
280
     1
102
RTVSPost2010PropOp30
 70
     1
102
RTVSPost2010Prop31
280
     0
102
RTVSPost2010PropOp31
 70
     1
102
RTVSPost2010Prop32
280
     0
102
RTVSPost2010PropOp32
 70
     1
102
RTVSPost2010Prop33
280
     0
102
RTVSPost2010PropOp33
 70
     1
102
RTVSPost2010Prop34
280
     0
102
RTVSPost2010PropOp34
 70
     1
102
RTVSPost2010Prop35
280
     0
102
RTVSPost2010PropOp35
 70
     1
102
RTVSPost2010Prop36
280
     0
102
RTVSPost2010PropOp36
 70
     1
102
RTVSPost2010Prop37
 90
       50
102
RTVSPost2010PropOp37
 70
     1
102
RTVSPost2010Prop38
140
0.0
102
RTVSPost2010PropOp38
 70
     1
102
RTVSPost2010Prop39
140
1.0
102
RTVSPost2010PropOp39
 70
     1
102
RTVSPost2010Prop40
 90
        0
102
RTVSPost2010PropOp40
 70
     1
102
RTVSPost2010Prop41ColorIndex
 90
       18
102
RTVSPost2010Prop41ColorRGB
 90
        0
102
RTVSPost2010PropOp41
 70
     1
102
RTVSPost2010Prop42
 90
       50
102
RTVSPost2010PropOp42
 70
     1
102
RTVSPost2010Prop43
 90
        3
102
RTVSPost2010PropOp43
 70
     1
102
RTVSPost2010Prop44ColorIndex
 90
        5
102
RTVSPost2010Prop44ColorRGB
 90
      255
102
RTVSPost2010PropOp44
 70
     1
102
RTVSPost2010Prop45
280
     0
102
RTVSPost2010PropOp45
 70
     1
102
RTVSPost2010Prop46
 90
       50
102
RTVSPost2010PropOp46
 70
     1
102
RTVSPost2010Prop47
 90
       50
102
RTVSPost2010PropOp47
 70
     1
102
RTVSPost2010Prop48
 90
       50
102
RTVSPost2010PropOp48
 70
     1
102
RTVSPost2010Prop49
280
     0
102
RTVSPost2010PropOp49
 70
     1
102
RTVSPost2010Prop50
 90
       50
102
RTVSPost2010PropOp50
 70
     1
102
RTVSPost2010Prop51ColorIndex
 90
      256
102
RTVSPost2010Prop51ColorRGB
 90
-16777216
102
RTVSPost2010PropOp51
 70
     0
102
RTVSPost2010Prop52
140
1.0
102
RTVSPost2010PropOp52
 70
     0
102
RTVSPost2010Prop53
 90
        2
102
RTVSPost2010PropOp53
 70
     1
102
RTVSPost2010Prop54
  1
strokes_ogs.tif
102
RTVSPost2010PropOp54
 70
     1
102
RTVSPost2010Prop55
280
     0
102
RTVSPost2010PropOp55
 70
     1
102
RTVSPost2010Prop56
140
1.0
102
RTVSPost2010PropOp56
 70
     1
102
RTVSPost2010Prop57
140
1.0
102
RTVSPost2010PropOp57
 70
     1
102
RTVSPropertyOp0
 70
     0
102
RTVSPropertyOp1
 70
     0
102
RTVSPropertyOp2
 70
     0
102
RTVSPropertyOp3
 70
     0
102
RTVSPropertyOp4
 70
     0
102
RTVSPropertyOp5
 70
     0
102
RTVSPropertyOp6
 70
     0
102
RTVSPropertyOp7
 70
     0
102
RTVSPropertyOp8
 70
     0
102
RTVSPropertyOp9
 70
     0
102
RTVSPropertyOp10
 70
     0
102
RTVSPropertyOp11
 70
     0
102
RTVSPropertyOp12
 70
     0
102
RTVSPropertyOp13
 70
     0
102
RTVSPropertyOp14
 70
     2
102
RTVSPropertyOp15
 70
     0
102
RTVSPropertyOp16
 70
     0
102
RTVSPropertyOp17
 70
     0
102
RTVSPropertyOp18
 70
     0
102
RTVSPropertyOp19
 70
     0
102
RTVSPropertyOp20
 70
     0
102
RTVSPropertyOp21
 70
     0
102
RTVSPropertyOp22
 70
     0
102
RTVSPropertyOp23
 70
     0
102
RTVSPropertyOp24
 70
     0
102
RTVSPropertyOp25
 70
     0
102
RTVSPropertyOp26
 70
     0
102
RTVSPropertyOp27
 70
     0
102
RTVSPropertyOp28
 70
     1
102
RTVSPropertyOp29
 70
     1
102
RTVSPropertyOp30
 70
     1
102
RTVSPropertyOp31
 70
     1
102
RTVSPropertyOp32
 70
     1
102
RTVSPropertyOp33
 70
     1
102
RTVSPropertyOp34
 70
     1
102
RTVSPropertyOp35
 70
     1
102
RTVSPropertyOp36
 70
     1
102
RTVSPropertyOp37
 70
     1
102
RTVSPropertyOp38
 70
     1
102
RTVSPropertyOp39
 70
     1
102
RTVSPropertyOp40
 70
     1
102
RTVSPropertyOp41
 70
     1
102
RTVSPropertyOp42
 70
     1
102
RTVSPropertyOp43
 70
     1
102
RTVSPropertyOp44
 70
     1
102
RTVSPropertyOp45
 70
     1
102
RTVSPropertyOp46
 70
     1
102
RTVSPropertyOp47
 70
     1
102
RTVSPropertyOp48
 70
     1
102
RTVSPropertyOp49
 70
     1
102
RTVSPropertyOp50
 70
     1
102
RTVSPropertyOp51
 70
     0
102
RTVSPropertyOp52
 70
     0
102
RTVSPropertyOp53
 70
     1
102
RTVSPropertyOp54
 70
     1
102
RTVSPropertyOp55
 70
     1
102
RTVSPropertyOp56
 70
     1
102
RTVSPropertyOp57
 70
     1
102
RTVSPropertyOp58
 70
     1
102
RTVSPropertyOp59
 70
     1
102
RTVSPropertyOp60
 70
     1
102
RTVSPropertyOp61
 70
     1
102
RTVSPropertyOp62
 70
     1
  0
XRECORD
  5
A2AE
102
{ACAD_REACTORS
330
A2AD
102
}
330
A2AD
100
AcDbXrecord
280
     1
102
RTVSPost2010Prop28
280
     0
102
RTVSPost2010PropOp28
 70
     1
102
RTVSPost2010Prop29
280
     1
102
RTVSPost2010PropOp29
 70
     1
102
RTVSPost2010Prop30
280
     1
102
RTVSPost2010PropOp30
 70
     1
102
RTVSPost2010Prop31
280
     0
102
RTVSPost2010PropOp31
 70
     1
102
RTVSPost2010Prop32
280
     0
102
RTVSPost2010PropOp32
 70
     1
102
RTVSPost2010Prop33
280
     0
102
RTVSPost2010PropOp33
 70
     1
102
RTVSPost2010Prop34
280
     0
102
RTVSPost2010PropOp34
 70
     1
102
RTVSPost2010Prop35
280
     0
102
RTVSPost2010PropOp35
 70
     1
102
RTVSPost2010Prop36
280
     0
102
RTVSPost2010PropOp36
 70
     1
102
RTVSPost2010Prop37
 90
       50
102
RTVSPost2010PropOp37
 70
     1
102
RTVSPost2010Prop38
140
0.0
102
RTVSPost2010PropOp38
 70
     1
102
RTVSPost2010Prop39
140
1.0
102
RTVSPost2010PropOp39
 70
     1
102
RTVSPost2010Prop40
 90
        0
102
RTVSPost2010PropOp40
 70
     1
102
RTVSPost2010Prop41ColorIndex
 90
       18
102
RTVSPost2010Prop41ColorRGB
 90
        0
102
RTVSPost2010PropOp41
 70
     1
102
RTVSPost2010Prop42
 90
       50
102
RTVSPost2010PropOp42
 70
     1
102
RTVSPost2010Prop43
 90
        3
102
RTVSPost2010PropOp43
 70
     1
102
RTVSPost2010Prop44ColorIndex
 90
        5
102
RTVSPost2010Prop44ColorRGB
 90
      255
102
RTVSPost2010PropOp44
 70
     1
102
RTVSPost2010Prop45
280
     0
102
RTVSPost2010PropOp45
 70
     1
102
RTVSPost2010Prop46
 90
       50
102
RTVSPost2010PropOp46
 70
     1
102
RTVSPost2010Prop47
 90
       50
102
RTVSPost2010PropOp47
 70
     1
102
RTVSPost2010Prop48
 90
       50
102
RTVSPost2010PropOp48
 70
     1
102
RTVSPost2010Prop49
280
     0
102
RTVSPost2010PropOp49
 70
     1
102
RTVSPost2010Prop50
 90
       50
102
RTVSPost2010PropOp50
 70
     1
102
RTVSPost2010Prop51ColorIndex
 90
      256
102
RTVSPost2010Prop51ColorRGB
 90
-16777216
102
RTVSPost2010PropOp51
 70
     0
102
RTVSPost2010Prop52
140
1.0
102
RTVSPost2010PropOp52
 70
     0
102
RTVSPost2010Prop53
 90
        2
102
RTVSPost2010PropOp53
 70
     1
102
RTVSPost2010Prop54
  1
strokes_ogs.tif
102
RTVSPost2010PropOp54
 70
     1
102
RTVSPost2010Prop55
280
     0
102
RTVSPost2010PropOp55
 70
     1
102
RTVSPost2010Prop56
140
1.0
102
RTVSPost2010PropOp56
 70
     1
102
RTVSPost2010Prop57
140
1.0
102
RTVSPost2010PropOp57
 70
     1
102
RTVSPropertyOp0
 70
     1
102
RTVSPropertyOp1
 70
     1
102
RTVSPropertyOp2
 70
     1
102
RTVSPropertyOp3
 70
     1
102
RTVSPropertyOp4
 70
     1
102
RTVSPropertyOp5
 70
     1
102
RTVSPropertyOp6
 70
     1
102
RTVSPropertyOp7
 70
     1
102
RTVSPropertyOp8
 70
     1
102
RTVSPropertyOp9
 70
     1
102
RTVSPropertyOp10
 70
     1
102
RTVSPropertyOp11
 70
     1
102
RTVSPropertyOp12
 70
     1
102
RTVSPropertyOp13
 70
     1
102
RTVSPropertyOp14
 70
     1
102
RTVSPropertyOp15
 70
     1
102
RTVSPropertyOp16
 70
     1
102
RTVSPropertyOp17
 70
     1
102
RTVSPropertyOp18
 70
     1
102
RTVSPropertyOp19
 70
     1
102
RTVSPropertyOp20
 70
     1
102
RTVSPropertyOp21
 70
     1
102
RTVSPropertyOp22
 70
     1
102
RTVSPropertyOp23
 70
     1
102
RTVSPropertyOp24
 70
     1
102
RTVSPropertyOp25
 70
     1
102
RTVSPropertyOp26
 70
     1
102
RTVSPropertyOp27
 70
     1
102
RTVSPropertyOp28
 70
     1
102
RTVSPropertyOp29
 70
     1
102
RTVSPropertyOp30
 70
     1
102
RTVSPropertyOp31
 70
     1
102
RTVSPropertyOp32
 70
     1
102
RTVSPropertyOp33
 70
     1
102
RTVSPropertyOp34
 70
     1
102
RTVSPropertyOp35
 70
     1
102
RTVSPropertyOp36
 70
     1
102
RTVSPropertyOp37
 70
     1
102
RTVSPropertyOp38
 70
     1
102
RTVSPropertyOp39
 70
     1
102
RTVSPropertyOp40
 70
     1
102
RTVSPropertyOp41
 70
     1
102
RTVSPropertyOp42
 70
     1
102
RTVSPropertyOp43
 70
     1
102
RTVSPropertyOp44
 70
     1
102
RTVSPropertyOp45
 70
     1
102
RTVSPropertyOp46
 70
     1
102
RTVSPropertyOp47
 70
     1
102
RTVSPropertyOp48
 70
     1
102
RTVSPropertyOp49
 70
     1
102
RTVSPropertyOp50
 70
     1
102
RTVSPropertyOp51
 70
     0
102
RTVSPropertyOp52
 70
     0
102
RTVSPropertyOp53
 70
     1
102
RTVSPropertyOp54
 70
     1
102
RTVSPropertyOp55
 70
     1
102
RTVSPropertyOp56
 70
     1
102
RTVSPropertyOp57
 70
     1
102
RTVSPropertyOp58
 70
     1
102
RTVSPropertyOp59
 70
     1
102
RTVSPropertyOp60
 70
     1
102
RTVSPropertyOp61
 70
     1
102
RTVSPropertyOp62
 70
     1
  0
XRECORD
  5
A292
102
{ACAD_REACTORS
330
A291
102
}
330
A291
100
AcDbXrecord
280
     1
102
RTVSPost2010Prop28
280
     0
102
RTVSPost2010PropOp28
 70
     1
102
RTVSPost2010Prop29
280
     1
102
RTVSPost2010PropOp29
 70
     1
102
RTVSPost2010Prop30
280
     1
102
RTVSPost2010PropOp30
 70
     1
102
RTVSPost2010Prop31
280
     0
102
RTVSPost2010PropOp31
 70
     1
102
RTVSPost2010Prop32
280
     0
102
RTVSPost2010PropOp32
 70
     1
102
RTVSPost2010Prop33
280
     0
102
RTVSPost2010PropOp33
 70
     1
102
RTVSPost2010Prop34
280
     0
102
RTVSPost2010PropOp34
 70
     1
102
RTVSPost2010Prop35
280
     0
102
RTVSPost2010PropOp35
 70
     1
102
RTVSPost2010Prop36
280
     0
102
RTVSPost2010PropOp36
 70
     1
102
RTVSPost2010Prop37
 90
       50
102
RTVSPost2010PropOp37
 70
     1
102
RTVSPost2010Prop38
140
0.0
102
RTVSPost2010PropOp38
 70
     1
102
RTVSPost2010Prop39
140
1.0
102
RTVSPost2010PropOp39
 70
     1
102
RTVSPost2010Prop40
 90
        0
102
RTVSPost2010PropOp40
 70
     1
102
RTVSPost2010Prop41ColorIndex
 90
       18
102
RTVSPost2010Prop41ColorRGB
 90
        0
102
RTVSPost2010PropOp41
 70
     1
102
RTVSPost2010Prop42
 90
       50
102
RTVSPost2010PropOp42
 70
     1
102
RTVSPost2010Prop43
 90
        3
102
RTVSPost2010PropOp43
 70
     1
102
RTVSPost2010Prop44ColorIndex
 90
        5
102
RTVSPost2010Prop44ColorRGB
 90
      255
102
RTVSPost2010PropOp44
 70
     1
102
RTVSPost2010Prop45
280
     0
102
RTVSPost2010PropOp45
 70
     1
102
RTVSPost2010Prop46
 90
       50
102
RTVSPost2010PropOp46
 70
     1
102
RTVSPost2010Prop47
 90
       50
102
RTVSPost2010PropOp47
 70
     1
102
RTVSPost2010Prop48
 90
       50
102
RTVSPost2010PropOp48
 70
     1
102
RTVSPost2010Prop49
280
     0
102
RTVSPost2010PropOp49
 70
     1
102
RTVSPost2010Prop50
 90
       50
102
RTVSPost2010PropOp50
 70
     1
102
RTVSPost2010Prop51ColorIndex
 90
      256
102
RTVSPost2010Prop51ColorRGB
 90
-16777216
102
RTVSPost2010PropOp51
 70
     0
102
RTVSPost2010Prop52
140
1.0
102
RTVSPost2010PropOp52
 70
     0
102
RTVSPost2010Prop53
 90
        2
102
RTVSPost2010PropOp53
 70
     1
102
RTVSPost2010Prop54
  1
strokes_ogs.tif
102
RTVSPost2010PropOp54
 70
     1
102
RTVSPost2010Prop55
280
     0
102
RTVSPost2010PropOp55
 70
     1
102
RTVSPost2010Prop56
140
1.0
102
RTVSPost2010PropOp56
 70
     1
102
RTVSPost2010Prop57
140
1.0
102
RTVSPost2010PropOp57
 70
     1
102
RTVSPropertyOp0
 70
     1
102
RTVSPropertyOp1
 70
     1
102
RTVSPropertyOp2
 70
     1
102
RTVSPropertyOp3
 70
     1
102
RTVSPropertyOp4
 70
     1
102
RTVSPropertyOp5
 70
     1
102
RTVSPropertyOp6
 70
     1
102
RTVSPropertyOp7
 70
     1
102
RTVSPropertyOp8
 70
     1
102
RTVSPropertyOp9
 70
     1
102
RTVSPropertyOp10
 70
     1
102
RTVSPropertyOp11
 70
     1
102
RTVSPropertyOp12
 70
     1
102
RTVSPropertyOp13
 70
     1
102
RTVSPropertyOp14
 70
     1
102
RTVSPropertyOp15
 70
     1
102
RTVSPropertyOp16
 70
     1
102
RTVSPropertyOp17
 70
     1
102
RTVSPropertyOp18
 70
     1
102
RTVSPropertyOp19
 70
     1
102
RTVSPropertyOp20
 70
     1
102
RTVSPropertyOp21
 70
     1
102
RTVSPropertyOp22
 70
     1
102
RTVSPropertyOp23
 70
     1
102
RTVSPropertyOp24
 70
     1
102
RTVSPropertyOp25
 70
     1
102
RTVSPropertyOp26
 70
     1
102
RTVSPropertyOp27
 70
     1
102
RTVSPropertyOp28
 70
     1
102
RTVSPropertyOp29
 70
     1
102
RTVSPropertyOp30
 70
     1
102
RTVSPropertyOp31
 70
     1
102
RTVSPropertyOp32
 70
     1
102
RTVSPropertyOp33
 70
     1
102
RTVSPropertyOp34
 70
     1
102
RTVSPropertyOp35
 70
     1
102
RTVSPropertyOp36
 70
     1
102
RTVSPropertyOp37
 70
     1
102
RTVSPropertyOp38
 70
     1
102
RTVSPropertyOp39
 70
     1
102
RTVSPropertyOp40
 70
     1
102
RTVSPropertyOp41
 70
     1
102
RTVSPropertyOp42
 70
     1
102
RTVSPropertyOp43
 70
     1
102
RTVSPropertyOp44
 70
     1
102
RTVSPropertyOp45
 70
     1
102
RTVSPropertyOp46
 70
     1
102
RTVSPropertyOp47
 70
     1
102
RTVSPropertyOp48
 70
     1
102
RTVSPropertyOp49
 70
     1
102
RTVSPropertyOp50
 70
     1
102
RTVSPropertyOp51
 70
     0
102
RTVSPropertyOp52
 70
     0
102
RTVSPropertyOp53
 70
     1
102
RTVSPropertyOp54
 70
     1
102
RTVSPropertyOp55
 70
     1
102
RTVSPropertyOp56
 70
     1
102
RTVSPropertyOp57
 70
     1
102
RTVSPropertyOp58
 70
     1
102
RTVSPropertyOp59
 70
     1
102
RTVSPropertyOp60
 70
     1
102
RTVSPropertyOp61
 70
     1
102
RTVSPropertyOp62
 70
     1
  0
XRECORD
  5
A294
102
{ACAD_REACTORS
330
A293
102
}
330
A293
100
AcDbXrecord
280
     1
102
RTVSPost2010Prop28
280
     0
102
RTVSPost2010PropOp28
 70
     1
102
RTVSPost2010Prop29
280
     1
102
RTVSPost2010PropOp29
 70
     1
102
RTVSPost2010Prop30
280
     1
102
RTVSPost2010PropOp30
 70
     1
102
RTVSPost2010Prop31
280
     0
102
RTVSPost2010PropOp31
 70
     1
102
RTVSPost2010Prop32
280
     0
102
RTVSPost2010PropOp32
 70
     1
102
RTVSPost2010Prop33
280
     0
102
RTVSPost2010PropOp33
 70
     1
102
RTVSPost2010Prop34
280
     0
102
RTVSPost2010PropOp34
 70
     1
102
RTVSPost2010Prop35
280
     0
102
RTVSPost2010PropOp35
 70
     1
102
RTVSPost2010Prop36
280
     0
102
RTVSPost2010PropOp36
 70
     1
102
RTVSPost2010Prop37
 90
       50
102
RTVSPost2010PropOp37
 70
     1
102
RTVSPost2010Prop38
140
0.0
102
RTVSPost2010PropOp38
 70
     1
102
RTVSPost2010Prop39
140
1.0
102
RTVSPost2010PropOp39
 70
     1
102
RTVSPost2010Prop40
 90
        0
102
RTVSPost2010PropOp40
 70
     1
102
RTVSPost2010Prop41ColorIndex
 90
       18
102
RTVSPost2010Prop41ColorRGB
 90
        0
102
RTVSPost2010PropOp41
 70
     1
102
RTVSPost2010Prop42
 90
       50
102
RTVSPost2010PropOp42
 70
     1
102
RTVSPost2010Prop43
 90
        3
102
RTVSPost2010PropOp43
 70
     1
102
RTVSPost2010Prop44ColorIndex
 90
        5
102
RTVSPost2010Prop44ColorRGB
 90
      255
102
RTVSPost2010PropOp44
 70
     1
102
RTVSPost2010Prop45
280
     0
102
RTVSPost2010PropOp45
 70
     1
102
RTVSPost2010Prop46
 90
       50
102
RTVSPost2010PropOp46
 70
     1
102
RTVSPost2010Prop47
 90
       50
102
RTVSPost2010PropOp47
 70
     1
102
RTVSPost2010Prop48
 90
       50
102
RTVSPost2010PropOp48
 70
     1
102
RTVSPost2010Prop49
280
     0
102
RTVSPost2010PropOp49
 70
     1
102
RTVSPost2010Prop50
 90
       50
102
RTVSPost2010PropOp50
 70
     1
102
RTVSPost2010Prop51ColorIndex
 90
      256
102
RTVSPost2010Prop51ColorRGB
 90
-16777216
102
RTVSPost2010PropOp51
 70
     0
102
RTVSPost2010Prop52
140
1.0
102
RTVSPost2010PropOp52
 70
     0
102
RTVSPost2010Prop53
 90
        2
102
RTVSPost2010PropOp53
 70
     1
102
RTVSPost2010Prop54
  1
strokes_ogs.tif
102
RTVSPost2010PropOp54
 70
     1
102
RTVSPost2010Prop55
280
     0
102
RTVSPost2010PropOp55
 70
     1
102
RTVSPost2010Prop56
140
1.0
102
RTVSPost2010PropOp56
 70
     1
102
RTVSPost2010Prop57
140
1.0
102
RTVSPost2010PropOp57
 70
     1
102
RTVSPropertyOp0
 70
     1
102
RTVSPropertyOp1
 70
     1
102
RTVSPropertyOp2
 70
     1
102
RTVSPropertyOp3
 70
     1
102
RTVSPropertyOp4
 70
     1
102
RTVSPropertyOp5
 70
     1
102
RTVSPropertyOp6
 70
     1
102
RTVSPropertyOp7
 70
     1
102
RTVSPropertyOp8
 70
     1
102
RTVSPropertyOp9
 70
     1
102
RTVSPropertyOp10
 70
     1
102
RTVSPropertyOp11
 70
     1
102
RTVSPropertyOp12
 70
     1
102
RTVSPropertyOp13
 70
     1
102
RTVSPropertyOp14
 70
     1
102
RTVSPropertyOp15
 70
     1
102
RTVSPropertyOp16
 70
     1
102
RTVSPropertyOp17
 70
     1
102
RTVSPropertyOp18
 70
     1
102
RTVSPropertyOp19
 70
     1
102
RTVSPropertyOp20
 70
     1
102
RTVSPropertyOp21
 70
     1
102
RTVSPropertyOp22
 70
     1
102
RTVSPropertyOp23
 70
     1
102
RTVSPropertyOp24
 70
     1
102
RTVSPropertyOp25
 70
     1
102
RTVSPropertyOp26
 70
     1
102
RTVSPropertyOp27
 70
     1
102
RTVSPropertyOp28
 70
     1
102
RTVSPropertyOp29
 70
     1
102
RTVSPropertyOp30
 70
     1
102
RTVSPropertyOp31
 70
     1
102
RTVSPropertyOp32
 70
     1
102
RTVSPropertyOp33
 70
     1
102
RTVSPropertyOp34
 70
     1
102
RTVSPropertyOp35
 70
     1
102
RTVSPropertyOp36
 70
     1
102
RTVSPropertyOp37
 70
     1
102
RTVSPropertyOp38
 70
     1
102
RTVSPropertyOp39
 70
     1
102
RTVSPropertyOp40
 70
     1
102
RTVSPropertyOp41
 70
     1
102
RTVSPropertyOp42
 70
     1
102
RTVSPropertyOp43
 70
     1
102
RTVSPropertyOp44
 70
     1
102
RTVSPropertyOp45
 70
     1
102
RTVSPropertyOp46
 70
     1
102
RTVSPropertyOp47
 70
     1
102
RTVSPropertyOp48
 70
     1
102
RTVSPropertyOp49
 70
     1
102
RTVSPropertyOp50
 70
     1
102
RTVSPropertyOp51
 70
     0
102
RTVSPropertyOp52
 70
     0
102
RTVSPropertyOp53
 70
     1
102
RTVSPropertyOp54
 70
     1
102
RTVSPropertyOp55
 70
     1
102
RTVSPropertyOp56
 70
     1
102
RTVSPropertyOp57
 70
     1
102
RTVSPropertyOp58
 70
     1
102
RTVSPropertyOp59
 70
     1
102
RTVSPropertyOp60
 70
     1
102
RTVSPropertyOp61
 70
     1
102
RTVSPropertyOp62
 70
     1
  0
XRECORD
  5
A296
102
{ACAD_REACTORS
330
A295
102
}
330
A295
100
AcDbXrecord
280
     1
102
RTVSPost2010Prop28
280
     0
102
RTVSPost2010PropOp28
 70
     1
102
RTVSPost2010Prop29
280
     1
102
RTVSPost2010PropOp29
 70
     1
102
RTVSPost2010Prop30
280
     1
102
RTVSPost2010PropOp30
 70
     1
102
RTVSPost2010Prop31
280
     0
102
RTVSPost2010PropOp31
 70
     1
102
RTVSPost2010Prop32
280
     0
102
RTVSPost2010PropOp32
 70
     1
102
RTVSPost2010Prop33
280
     0
102
RTVSPost2010PropOp33
 70
     1
102
RTVSPost2010Prop34
280
     0
102
RTVSPost2010PropOp34
 70
     1
102
RTVSPost2010Prop35
280
     0
102
RTVSPost2010PropOp35
 70
     1
102
RTVSPost2010Prop36
280
     0
102
RTVSPost2010PropOp36
 70
     1
102
RTVSPost2010Prop37
 90
       50
102
RTVSPost2010PropOp37
 70
     1
102
RTVSPost2010Prop38
140
0.0
102
RTVSPost2010PropOp38
 70
     1
102
RTVSPost2010Prop39
140
1.0
102
RTVSPost2010PropOp39
 70
     1
102
RTVSPost2010Prop40
 90
        0
102
RTVSPost2010PropOp40
 70
     1
102
RTVSPost2010Prop41ColorIndex
 90
       18
102
RTVSPost2010Prop41ColorRGB
 90
        0
102
RTVSPost2010PropOp41
 70
     1
102
RTVSPost2010Prop42
 90
       50
102
RTVSPost2010PropOp42
 70
     1
102
RTVSPost2010Prop43
 90
        3
102
RTVSPost2010PropOp43
 70
     1
102
RTVSPost2010Prop44ColorIndex
 90
        5
102
RTVSPost2010Prop44ColorRGB
 90
      255
102
RTVSPost2010PropOp44
 70
     1
102
RTVSPost2010Prop45
280
     0
102
RTVSPost2010PropOp45
 70
     1
102
RTVSPost2010Prop46
 90
       50
102
RTVSPost2010PropOp46
 70
     1
102
RTVSPost2010Prop47
 90
       50
102
RTVSPost2010PropOp47
 70
     1
102
RTVSPost2010Prop48
 90
       50
102
RTVSPost2010PropOp48
 70
     1
102
RTVSPost2010Prop49
280
     0
102
RTVSPost2010PropOp49
 70
     1
102
RTVSPost2010Prop50
 90
       50
102
RTVSPost2010PropOp50
 70
     1
102
RTVSPost2010Prop51ColorIndex
 90
      256
102
RTVSPost2010Prop51ColorRGB
 90
-16777216
102
RTVSPost2010PropOp51
 70
     0
102
RTVSPost2010Prop52
140
1.0
102
RTVSPost2010PropOp52
 70
     0
102
RTVSPost2010Prop53
 90
        2
102
RTVSPost2010PropOp53
 70
     1
102
RTVSPost2010Prop54
  1
strokes_ogs.tif
102
RTVSPost2010PropOp54
 70
     1
102
RTVSPost2010Prop55
280
     0
102
RTVSPost2010PropOp55
 70
     1
102
RTVSPost2010Prop56
140
1.0
102
RTVSPost2010PropOp56
 70
     1
102
RTVSPost2010Prop57
140
1.0
102
RTVSPost2010PropOp57
 70
     1
102
RTVSPropertyOp0
 70
     1
102
RTVSPropertyOp1
 70
     1
102
RTVSPropertyOp2
 70
     1
102
RTVSPropertyOp3
 70
     1
102
RTVSPropertyOp4
 70
     1
102
RTVSPropertyOp5
 70
     1
102
RTVSPropertyOp6
 70
     1
102
RTVSPropertyOp7
 70
     1
102
RTVSPropertyOp8
 70
     1
102
RTVSPropertyOp9
 70
     1
102
RTVSPropertyOp10
 70
     1
102
RTVSPropertyOp11
 70
     1
102
RTVSPropertyOp12
 70
     1
102
RTVSPropertyOp13
 70
     1
102
RTVSPropertyOp14
 70
     1
102
RTVSPropertyOp15
 70
     1
102
RTVSPropertyOp16
 70
     1
102
RTVSPropertyOp17
 70
     1
102
RTVSPropertyOp18
 70
     1
102
RTVSPropertyOp19
 70
     1
102
RTVSPropertyOp20
 70
     1
102
RTVSPropertyOp21
 70
     1
102
RTVSPropertyOp22
 70
     1
102
RTVSPropertyOp23
 70
     1
102
RTVSPropertyOp24
 70
     1
102
RTVSPropertyOp25
 70
     1
102
RTVSPropertyOp26
 70
     1
102
RTVSPropertyOp27
 70
     1
102
RTVSPropertyOp28
 70
     1
102
RTVSPropertyOp29
 70
     1
102
RTVSPropertyOp30
 70
     1
102
RTVSPropertyOp31
 70
     1
102
RTVSPropertyOp32
 70
     1
102
RTVSPropertyOp33
 70
     1
102
RTVSPropertyOp34
 70
     1
102
RTVSPropertyOp35
 70
     1
102
RTVSPropertyOp36
 70
     1
102
RTVSPropertyOp37
 70
     1
102
RTVSPropertyOp38
 70
     1
102
RTVSPropertyOp39
 70
     1
102
RTVSPropertyOp40
 70
     1
102
RTVSPropertyOp41
 70
     1
102
RTVSPropertyOp42
 70
     1
102
RTVSPropertyOp43
 70
     1
102
RTVSPropertyOp44
 70
     1
102
RTVSPropertyOp45
 70
     1
102
RTVSPropertyOp46
 70
     1
102
RTVSPropertyOp47
 70
     1
102
RTVSPropertyOp48
 70
     1
102
RTVSPropertyOp49
 70
     1
102
RTVSPropertyOp50
 70
     1
102
RTVSPropertyOp51
 70
     0
102
RTVSPropertyOp52
 70
     0
102
RTVSPropertyOp53
 70
     1
102
RTVSPropertyOp54
 70
     1
102
RTVSPropertyOp55
 70
     1
102
RTVSPropertyOp56
 70
     1
102
RTVSPropertyOp57
 70
     1
102
RTVSPropertyOp58
 70
     1
102
RTVSPropertyOp59
 70
     1
102
RTVSPropertyOp60
 70
     1
102
RTVSPropertyOp61
 70
     1
102
RTVSPropertyOp62
 70
     1
  0
XRECORD
  5
A298
102
{ACAD_REACTORS
330
A297
102
}
330
A297
100
AcDbXrecord
280
     1
102
RTVSPost2010Prop28
280
     0
102
RTVSPost2010PropOp28
 70
     1
102
RTVSPost2010Prop29
280
     1
102
RTVSPost2010PropOp29
 70
     1
102
RTVSPost2010Prop30
280
     1
102
RTVSPost2010PropOp30
 70
     1
102
RTVSPost2010Prop31
280
     0
102
RTVSPost2010PropOp31
 70
     1
102
RTVSPost2010Prop32
280
     0
102
RTVSPost2010PropOp32
 70
     1
102
RTVSPost2010Prop33
280
     0
102
RTVSPost2010PropOp33
 70
     1
102
RTVSPost2010Prop34
280
     0
102
RTVSPost2010PropOp34
 70
     1
102
RTVSPost2010Prop35
280
     0
102
RTVSPost2010PropOp35
 70
     1
102
RTVSPost2010Prop36
280
     0
102
RTVSPost2010PropOp36
 70
     1
102
RTVSPost2010Prop37
 90
       50
102
RTVSPost2010PropOp37
 70
     1
102
RTVSPost2010Prop38
140
0.0
102
RTVSPost2010PropOp38
 70
     1
102
RTVSPost2010Prop39
140
1.0
102
RTVSPost2010PropOp39
 70
     1
102
RTVSPost2010Prop40
 90
        0
102
RTVSPost2010PropOp40
 70
     1
102
RTVSPost2010Prop41ColorIndex
 90
       18
102
RTVSPost2010Prop41ColorRGB
 90
        0
102
RTVSPost2010PropOp41
 70
     1
102
RTVSPost2010Prop42
 90
       50
102
RTVSPost2010PropOp42
 70
     1
102
RTVSPost2010Prop43
 90
        3
102
RTVSPost2010PropOp43
 70
     1
102
RTVSPost2010Prop44ColorIndex
 90
        5
102
RTVSPost2010Prop44ColorRGB
 90
      255
102
RTVSPost2010PropOp44
 70
     1
102
RTVSPost2010Prop45
280
     0
102
RTVSPost2010PropOp45
 70
     1
102
RTVSPost2010Prop46
 90
       50
102
RTVSPost2010PropOp46
 70
     1
102
RTVSPost2010Prop47
 90
       50
102
RTVSPost2010PropOp47
 70
     1
102
RTVSPost2010Prop48
 90
       50
102
RTVSPost2010PropOp48
 70
     1
102
RTVSPost2010Prop49
280
     0
102
RTVSPost2010PropOp49
 70
     1
102
RTVSPost2010Prop50
 90
       50
102
RTVSPost2010PropOp50
 70
     1
102
RTVSPost2010Prop51ColorIndex
 90
      256
102
RTVSPost2010Prop51ColorRGB
 90
-16777216
102
RTVSPost2010PropOp51
 70
     0
102
RTVSPost2010Prop52
140
1.0
102
RTVSPost2010PropOp52
 70
     0
102
RTVSPost2010Prop53
 90
        2
102
RTVSPost2010PropOp53
 70
     1
102
RTVSPost2010Prop54
  1
strokes_ogs.tif
102
RTVSPost2010PropOp54
 70
     1
102
RTVSPost2010Prop55
280
     0
102
RTVSPost2010PropOp55
 70
     1
102
RTVSPost2010Prop56
140
1.0
102
RTVSPost2010PropOp56
 70
     1
102
RTVSPost2010Prop57
140
1.0
102
RTVSPost2010PropOp57
 70
     1
102
RTVSPropertyOp0
 70
     1
102
RTVSPropertyOp1
 70
     1
102
RTVSPropertyOp2
 70
     1
102
RTVSPropertyOp3
 70
     1
102
RTVSPropertyOp4
 70
     1
102
RTVSPropertyOp5
 70
     1
102
RTVSPropertyOp6
 70
     1
102
RTVSPropertyOp7
 70
     1
102
RTVSPropertyOp8
 70
     1
102
RTVSPropertyOp9
 70
     1
102
RTVSPropertyOp10
 70
     1
102
RTVSPropertyOp11
 70
     1
102
RTVSPropertyOp12
 70
     1
102
RTVSPropertyOp13
 70
     1
102
RTVSPropertyOp14
 70
     1
102
RTVSPropertyOp15
 70
     1
102
RTVSPropertyOp16
 70
     1
102
RTVSPropertyOp17
 70
     1
102
RTVSPropertyOp18
 70
     1
102
RTVSPropertyOp19
 70
     1
102
RTVSPropertyOp20
 70
     1
102
RTVSPropertyOp21
 70
     1
102
RTVSPropertyOp22
 70
     1
102
RTVSPropertyOp23
 70
     1
102
RTVSPropertyOp24
 70
     1
102
RTVSPropertyOp25
 70
     1
102
RTVSPropertyOp26
 70
     1
102
RTVSPropertyOp27
 70
     1
102
RTVSPropertyOp28
 70
     1
102
RTVSPropertyOp29
 70
     1
102
RTVSPropertyOp30
 70
     1
102
RTVSPropertyOp31
 70
     1
102
RTVSPropertyOp32
 70
     1
102
RTVSPropertyOp33
 70
     1
102
RTVSPropertyOp34
 70
     1
102
RTVSPropertyOp35
 70
     1
102
RTVSPropertyOp36
 70
     1
102
RTVSPropertyOp37
 70
     1
102
RTVSPropertyOp38
 70
     1
102
RTVSPropertyOp39
 70
     1
102
RTVSPropertyOp40
 70
     1
102
RTVSPropertyOp41
 70
     1
102
RTVSPropertyOp42
 70
     1
102
RTVSPropertyOp43
 70
     1
102
RTVSPropertyOp44
 70
     1
102
RTVSPropertyOp45
 70
     1
102
RTVSPropertyOp46
 70
     1
102
RTVSPropertyOp47
 70
     1
102
RTVSPropertyOp48
 70
     1
102
RTVSPropertyOp49
 70
     1
102
RTVSPropertyOp50
 70
     1
102
RTVSPropertyOp51
 70
     0
102
RTVSPropertyOp52
 70
     0
102
RTVSPropertyOp53
 70
     1
102
RTVSPropertyOp54
 70
     1
102
RTVSPropertyOp55
 70
     1
102
RTVSPropertyOp56
 70
     1
102
RTVSPropertyOp57
 70
     1
102
RTVSPropertyOp58
 70
     1
102
RTVSPropertyOp59
 70
     1
102
RTVSPropertyOp60
 70
     1
102
RTVSPropertyOp61
 70
     1
102
RTVSPropertyOp62
 70
     1
  0
XRECORD
  5
A2A0
102
{ACAD_REACTORS
330
A29F
102
}
330
A29F
100
AcDbXrecord
280
     1
102
RTVSPost2010Prop28
280
     0
102
RTVSPost2010PropOp28
 70
     1
102
RTVSPost2010Prop29
280
     1
102
RTVSPost2010PropOp29
 70
     1
102
RTVSPost2010Prop30
280
     1
102
RTVSPost2010PropOp30
 70
     1
102
RTVSPost2010Prop31
280
     0
102
RTVSPost2010PropOp31
 70
     1
102
RTVSPost2010Prop32
280
     0
102
RTVSPost2010PropOp32
 70
     1
102
RTVSPost2010Prop33
280
     0
102
RTVSPost2010PropOp33
 70
     1
102
RTVSPost2010Prop34
280
     0
102
RTVSPost2010PropOp34
 70
     1
102
RTVSPost2010Prop35
280
     0
102
RTVSPost2010PropOp35
 70
     1
102
RTVSPost2010Prop36
280
     0
102
RTVSPost2010PropOp36
 70
     1
102
RTVSPost2010Prop37
 90
       50
102
RTVSPost2010PropOp37
 70
     1
102
RTVSPost2010Prop38
140
0.0
102
RTVSPost2010PropOp38
 70
     1
102
RTVSPost2010Prop39
140
1.0
102
RTVSPost2010PropOp39
 70
     1
102
RTVSPost2010Prop40
 90
        0
102
RTVSPost2010PropOp40
 70
     1
102
RTVSPost2010Prop41ColorIndex
 90
       18
102
RTVSPost2010Prop41ColorRGB
 90
        0
102
RTVSPost2010PropOp41
 70
     1
102
RTVSPost2010Prop42
 90
       50
102
RTVSPost2010PropOp42
 70
     1
102
RTVSPost2010Prop43
 90
        3
102
RTVSPost2010PropOp43
 70
     1
102
RTVSPost2010Prop44ColorIndex
 90
        5
102
RTVSPost2010Prop44ColorRGB
 90
      255
102
RTVSPost2010PropOp44
 70
     1
102
RTVSPost2010Prop45
280
     0
102
RTVSPost2010PropOp45
 70
     1
102
RTVSPost2010Prop46
 90
       50
102
RTVSPost2010PropOp46
 70
     1
102
RTVSPost2010Prop47
 90
       50
102
RTVSPost2010PropOp47
 70
     1
102
RTVSPost2010Prop48
 90
       50
102
RTVSPost2010PropOp48
 70
     1
102
RTVSPost2010Prop49
280
     0
102
RTVSPost2010PropOp49
 70
     1
102
RTVSPost2010Prop50
 90
       50
102
RTVSPost2010PropOp50
 70
     1
102
RTVSPost2010Prop51ColorIndex
 90
      256
102
RTVSPost2010Prop51ColorRGB
 90
-16777216
102
RTVSPost2010PropOp51
 70
     0
102
RTVSPost2010Prop52
140
1.0
102
RTVSPost2010PropOp52
 70
     0
102
RTVSPost2010Prop53
 90
        2
102
RTVSPost2010PropOp53
 70
     1
102
RTVSPost2010Prop54
  1
strokes_ogs.tif
102
RTVSPost2010PropOp54
 70
     1
102
RTVSPost2010Prop55
280
     0
102
RTVSPost2010PropOp55
 70
     1
102
RTVSPost2010Prop56
140
1.0
102
RTVSPost2010PropOp56
 70
     1
102
RTVSPost2010Prop57
140
1.0
102
RTVSPost2010PropOp57
 70
     1
102
RTVSPropertyOp0
 70
     1
102
RTVSPropertyOp1
 70
     1
102
RTVSPropertyOp2
 70
     1
102
RTVSPropertyOp3
 70
     1
102
RTVSPropertyOp4
 70
     1
102
RTVSPropertyOp5
 70
     1
102
RTVSPropertyOp6
 70
     1
102
RTVSPropertyOp7
 70
     1
102
RTVSPropertyOp8
 70
     1
102
RTVSPropertyOp9
 70
     1
102
RTVSPropertyOp10
 70
     1
102
RTVSPropertyOp11
 70
     1
102
RTVSPropertyOp12
 70
     1
102
RTVSPropertyOp13
 70
     1
102
RTVSPropertyOp14
 70
     1
102
RTVSPropertyOp15
 70
     1
102
RTVSPropertyOp16
 70
     1
102
RTVSPropertyOp17
 70
     1
102
RTVSPropertyOp18
 70
     1
102
RTVSPropertyOp19
 70
     1
102
RTVSPropertyOp20
 70
     1
102
RTVSPropertyOp21
 70
     1
102
RTVSPropertyOp22
 70
     1
102
RTVSPropertyOp23
 70
     1
102
RTVSPropertyOp24
 70
     1
102
RTVSPropertyOp25
 70
     1
102
RTVSPropertyOp26
 70
     1
102
RTVSPropertyOp27
 70
     1
102
RTVSPropertyOp28
 70
     1
102
RTVSPropertyOp29
 70
     1
102
RTVSPropertyOp30
 70
     1
102
RTVSPropertyOp31
 70
     1
102
RTVSPropertyOp32
 70
     1
102
RTVSPropertyOp33
 70
     1
102
RTVSPropertyOp34
 70
     1
102
RTVSPropertyOp35
 70
     1
102
RTVSPropertyOp36
 70
     1
102
RTVSPropertyOp37
 70
     1
102
RTVSPropertyOp38
 70
     1
102
RTVSPropertyOp39
 70
     1
102
RTVSPropertyOp40
 70
     1
102
RTVSPropertyOp41
 70
     1
102
RTVSPropertyOp42
 70
     1
102
RTVSPropertyOp43
 70
     1
102
RTVSPropertyOp44
 70
     1
102
RTVSPropertyOp45
 70
     1
102
RTVSPropertyOp46
 70
     1
102
RTVSPropertyOp47
 70
     1
102
RTVSPropertyOp48
 70
     1
102
RTVSPropertyOp49
 70
     1
102
RTVSPropertyOp50
 70
     1
102
RTVSPropertyOp51
 70
     0
102
RTVSPropertyOp52
 70
     0
102
RTVSPropertyOp53
 70
     1
102
RTVSPropertyOp54
 70
     1
102
RTVSPropertyOp55
 70
     1
102
RTVSPropertyOp56
 70
     1
102
RTVSPropertyOp57
 70
     1
102
RTVSPropertyOp58
 70
     1
102
RTVSPropertyOp59
 70
     1
102
RTVSPropertyOp60
 70
     1
102
RTVSPropertyOp61
 70
     1
102
RTVSPropertyOp62
 70
     1
  0
XRECORD
  5
A2B4
102
{ACAD_REACTORS
330
A2B3
102
}
330
A2B3
100
AcDbXrecord
280
     1
102
RTVSPost2010Prop28
280
     0
102
RTVSPost2010PropOp28
 70
     1
102
RTVSPost2010Prop29
280
     1
102
RTVSPost2010PropOp29
 70
     1
102
RTVSPost2010Prop30
280
     1
102
RTVSPost2010PropOp30
 70
     1
102
RTVSPost2010Prop31
280
     0
102
RTVSPost2010PropOp31
 70
     1
102
RTVSPost2010Prop32
280
     0
102
RTVSPost2010PropOp32
 70
     1
102
RTVSPost2010Prop33
280
     0
102
RTVSPost2010PropOp33
 70
     1
102
RTVSPost2010Prop34
280
     0
102
RTVSPost2010PropOp34
 70
     1
102
RTVSPost2010Prop35
280
     0
102
RTVSPost2010PropOp35
 70
     1
102
RTVSPost2010Prop36
280
     0
102
RTVSPost2010PropOp36
 70
     1
102
RTVSPost2010Prop37
 90
       50
102
RTVSPost2010PropOp37
 70
     1
102
RTVSPost2010Prop38
140
0.0
102
RTVSPost2010PropOp38
 70
     1
102
RTVSPost2010Prop39
140
1.0
102
RTVSPost2010PropOp39
 70
     1
102
RTVSPost2010Prop40
 90
        0
102
RTVSPost2010PropOp40
 70
     1
102
RTVSPost2010Prop41ColorIndex
 90
       18
102
RTVSPost2010Prop41ColorRGB
 90
        0
102
RTVSPost2010PropOp41
 70
     1
102
RTVSPost2010Prop42
 90
       50
102
RTVSPost2010PropOp42
 70
     1
102
RTVSPost2010Prop43
 90
        3
102
RTVSPost2010PropOp43
 70
     1
102
RTVSPost2010Prop44ColorIndex
 90
        5
102
RTVSPost2010Prop44ColorRGB
 90
      255
102
RTVSPost2010PropOp44
 70
     1
102
RTVSPost2010Prop45
280
     0
102
RTVSPost2010PropOp45
 70
     1
102
RTVSPost2010Prop46
 90
       50
102
RTVSPost2010PropOp46
 70
     1
102
RTVSPost2010Prop47
 90
       50
102
RTVSPost2010PropOp47
 70
     1
102
RTVSPost2010Prop48
 90
       50
102
RTVSPost2010PropOp48
 70
     1
102
RTVSPost2010Prop49
280
     0
102
RTVSPost2010PropOp49
 70
     1
102
RTVSPost2010Prop50
 90
       50
102
RTVSPost2010PropOp50
 70
     1
102
RTVSPost2010Prop51ColorIndex
 90
      256
102
RTVSPost2010Prop51ColorRGB
 90
-16777216
102
RTVSPost2010PropOp51
 70
     0
102
RTVSPost2010Prop52
140
1.0
102
RTVSPost2010PropOp52
 70
     0
102
RTVSPost2010Prop53
 90
        2
102
RTVSPost2010PropOp53
 70
     1
102
RTVSPost2010Prop54
  1
strokes_ogs.tif
102
RTVSPost2010PropOp54
 70
     1
102
RTVSPost2010Prop55
280
     0
102
RTVSPost2010PropOp55
 70
     1
102
RTVSPost2010Prop56
140
1.0
102
RTVSPost2010PropOp56
 70
     1
102
RTVSPost2010Prop57
140
1.0
102
RTVSPost2010PropOp57
 70
     1
102
RTVSPropertyOp0
 70
     0
102
RTVSPropertyOp1
 70
     0
102
RTVSPropertyOp2
 70
     0
102
RTVSPropertyOp3
 70
     0
102
RTVSPropertyOp4
 70
     0
102
RTVSPropertyOp5
 70
     0
102
RTVSPropertyOp6
 70
     0
102
RTVSPropertyOp7
 70
     0
102
RTVSPropertyOp8
 70
     0
102
RTVSPropertyOp9
 70
     0
102
RTVSPropertyOp10
 70
     0
102
RTVSPropertyOp11
 70
     0
102
RTVSPropertyOp12
 70
     0
102
RTVSPropertyOp13
 70
     0
102
RTVSPropertyOp14
 70
     2
102
RTVSPropertyOp15
 70
     0
102
RTVSPropertyOp16
 70
     0
102
RTVSPropertyOp17
 70
     0
102
RTVSPropertyOp18
 70
     0
102
RTVSPropertyOp19
 70
     0
102
RTVSPropertyOp20
 70
     0
102
RTVSPropertyOp21
 70
     0
102
RTVSPropertyOp22
 70
     0
102
RTVSPropertyOp23
 70
     0
102
RTVSPropertyOp24
 70
     0
102
RTVSPropertyOp25
 70
     0
102
RTVSPropertyOp26
 70
     0
102
RTVSPropertyOp27
 70
     0
102
RTVSPropertyOp28
 70
     1
102
RTVSPropertyOp29
 70
     1
102
RTVSPropertyOp30
 70
     1
102
RTVSPropertyOp31
 70
     1
102
RTVSPropertyOp32
 70
     1
102
RTVSPropertyOp33
 70
     1
102
RTVSPropertyOp34
 70
     1
102
RTVSPropertyOp35
 70
     1
102
RTVSPropertyOp36
 70
     1
102
RTVSPropertyOp37
 70
     1
102
RTVSPropertyOp38
 70
     1
102
RTVSPropertyOp39
 70
     1
102
RTVSPropertyOp40
 70
     1
102
RTVSPropertyOp41
 70
     1
102
RTVSPropertyOp42
 70
     1
102
RTVSPropertyOp43
 70
     1
102
RTVSPropertyOp44
 70
     1
102
RTVSPropertyOp45
 70
     1
102
RTVSPropertyOp46
 70
     1
102
RTVSPropertyOp47
 70
     1
102
RTVSPropertyOp48
 70
     1
102
RTVSPropertyOp49
 70
     1
102
RTVSPropertyOp50
 70
     1
102
RTVSPropertyOp51
 70
     0
102
RTVSPropertyOp52
 70
     0
102
RTVSPropertyOp53
 70
     1
102
RTVSPropertyOp54
 70
     1
102
RTVSPropertyOp55
 70
     1
102
RTVSPropertyOp56
 70
     1
102
RTVSPropertyOp57
 70
     1
102
RTVSPropertyOp58
 70
     1
102
RTVSPropertyOp59
 70
     1
102
RTVSPropertyOp60
 70
     1
102
RTVSPropertyOp61
 70
     1
102
RTVSPropertyOp62
 70
     1
  0
XRECORD
  5
A2AC
102
{ACAD_REACTORS
330
A2AB
102
}
330
A2AB
100
AcDbXrecord
280
     1
102
RTVSPost2010Prop28
280
     0
102
RTVSPost2010PropOp28
 70
     1
102
RTVSPost2010Prop29
280
     1
102
RTVSPost2010PropOp29
 70
     1
102
RTVSPost2010Prop30
280
     1
102
RTVSPost2010PropOp30
 70
     1
102
RTVSPost2010Prop31
280
     0
102
RTVSPost2010PropOp31
 70
     1
102
RTVSPost2010Prop32
280
     0
102
RTVSPost2010PropOp32
 70
     1
102
RTVSPost2010Prop33
280
     0
102
RTVSPost2010PropOp33
 70
     1
102
RTVSPost2010Prop34
280
     0
102
RTVSPost2010PropOp34
 70
     1
102
RTVSPost2010Prop35
280
     0
102
RTVSPost2010PropOp35
 70
     1
102
RTVSPost2010Prop36
280
     0
102
RTVSPost2010PropOp36
 70
     1
102
RTVSPost2010Prop37
 90
       50
102
RTVSPost2010PropOp37
 70
     1
102
RTVSPost2010Prop38
140
0.0
102
RTVSPost2010PropOp38
 70
     1
102
RTVSPost2010Prop39
140
1.0
102
RTVSPost2010PropOp39
 70
     1
102
RTVSPost2010Prop40
 90
        0
102
RTVSPost2010PropOp40
 70
     1
102
RTVSPost2010Prop41ColorIndex
 90
       18
102
RTVSPost2010Prop41ColorRGB
 90
        0
102
RTVSPost2010PropOp41
 70
     1
102
RTVSPost2010Prop42
 90
       50
102
RTVSPost2010PropOp42
 70
     1
102
RTVSPost2010Prop43
 90
        3
102
RTVSPost2010PropOp43
 70
     1
102
RTVSPost2010Prop44ColorIndex
 90
        5
102
RTVSPost2010Prop44ColorRGB
 90
      255
102
RTVSPost2010PropOp44
 70
     1
102
RTVSPost2010Prop45
280
     0
102
RTVSPost2010PropOp45
 70
     1
102
RTVSPost2010Prop46
 90
       50
102
RTVSPost2010PropOp46
 70
     1
102
RTVSPost2010Prop47
 90
       50
102
RTVSPost2010PropOp47
 70
     1
102
RTVSPost2010Prop48
 90
       50
102
RTVSPost2010PropOp48
 70
     1
102
RTVSPost2010Prop49
280
     0
102
RTVSPost2010PropOp49
 70
     1
102
RTVSPost2010Prop50
 90
       50
102
RTVSPost2010PropOp50
 70
     1
102
RTVSPost2010Prop51ColorIndex
 90
      256
102
RTVSPost2010Prop51ColorRGB
 90
-16777216
102
RTVSPost2010PropOp51
 70
     0
102
RTVSPost2010Prop52
140
1.0
102
RTVSPost2010PropOp52
 70
     0
102
RTVSPost2010Prop53
 90
        2
102
RTVSPost2010PropOp53
 70
     1
102
RTVSPost2010Prop54
  1
strokes_ogs.tif
102
RTVSPost2010PropOp54
 70
     1
102
RTVSPost2010Prop55
280
     0
102
RTVSPost2010PropOp55
 70
     1
102
RTVSPost2010Prop56
140
1.0
102
RTVSPost2010PropOp56
 70
     1
102
RTVSPost2010Prop57
140
1.0
102
RTVSPost2010PropOp57
 70
     1
102
RTVSPropertyOp0
 70
     1
102
RTVSPropertyOp1
 70
     1
102
RTVSPropertyOp2
 70
     1
102
RTVSPropertyOp3
 70
     1
102
RTVSPropertyOp4
 70
     1
102
RTVSPropertyOp5
 70
     1
102
RTVSPropertyOp6
 70
     1
102
RTVSPropertyOp7
 70
     1
102
RTVSPropertyOp8
 70
     1
102
RTVSPropertyOp9
 70
     1
102
RTVSPropertyOp10
 70
     1
102
RTVSPropertyOp11
 70
     1
102
RTVSPropertyOp12
 70
     1
102
RTVSPropertyOp13
 70
     1
102
RTVSPropertyOp14
 70
     1
102
RTVSPropertyOp15
 70
     1
102
RTVSPropertyOp16
 70
     1
102
RTVSPropertyOp17
 70
     1
102
RTVSPropertyOp18
 70
     1
102
RTVSPropertyOp19
 70
     1
102
RTVSPropertyOp20
 70
     1
102
RTVSPropertyOp21
 70
     1
102
RTVSPropertyOp22
 70
     1
102
RTVSPropertyOp23
 70
     1
102
RTVSPropertyOp24
 70
     1
102
RTVSPropertyOp25
 70
     1
102
RTVSPropertyOp26
 70
     1
102
RTVSPropertyOp27
 70
     1
102
RTVSPropertyOp28
 70
     1
102
RTVSPropertyOp29
 70
     1
102
RTVSPropertyOp30
 70
     1
102
RTVSPropertyOp31
 70
     1
102
RTVSPropertyOp32
 70
     1
102
RTVSPropertyOp33
 70
     1
102
RTVSPropertyOp34
 70
     1
102
RTVSPropertyOp35
 70
     1
102
RTVSPropertyOp36
 70
     1
102
RTVSPropertyOp37
 70
     1
102
RTVSPropertyOp38
 70
     1
102
RTVSPropertyOp39
 70
     1
102
RTVSPropertyOp40
 70
     1
102
RTVSPropertyOp41
 70
     1
102
RTVSPropertyOp42
 70
     1
102
RTVSPropertyOp43
 70
     1
102
RTVSPropertyOp44
 70
     1
102
RTVSPropertyOp45
 70
     1
102
RTVSPropertyOp46
 70
     1
102
RTVSPropertyOp47
 70
     1
102
RTVSPropertyOp48
 70
     1
102
RTVSPropertyOp49
 70
     1
102
RTVSPropertyOp50
 70
     1
102
RTVSPropertyOp51
 70
     0
102
RTVSPropertyOp52
 70
     0
102
RTVSPropertyOp53
 70
     1
102
RTVSPropertyOp54
 70
     1
102
RTVSPropertyOp55
 70
     1
102
RTVSPropertyOp56
 70
     1
102
RTVSPropertyOp57
 70
     1
102
RTVSPropertyOp58
 70
     1
102
RTVSPropertyOp59
 70
     1
102
RTVSPropertyOp60
 70
     1
102
RTVSPropertyOp61
 70
     1
102
RTVSPropertyOp62
 70
     1
  0
XRECORD
  5
A2B6
102
{ACAD_REACTORS
330
A2B5
102
}
330
A2B5
100
AcDbXrecord
280
     1
102
RTVSPost2010Prop28
280
     0
102
RTVSPost2010PropOp28
 70
     1
102
RTVSPost2010Prop29
280
     1
102
RTVSPost2010PropOp29
 70
     1
102
RTVSPost2010Prop30
280
     1
102
RTVSPost2010PropOp30
 70
     1
102
RTVSPost2010Prop31
280
     0
102
RTVSPost2010PropOp31
 70
     1
102
RTVSPost2010Prop32
280
     0
102
RTVSPost2010PropOp32
 70
     1
102
RTVSPost2010Prop33
280
     0
102
RTVSPost2010PropOp33
 70
     1
102
RTVSPost2010Prop34
280
     0
102
RTVSPost2010PropOp34
 70
     1
102
RTVSPost2010Prop35
280
     0
102
RTVSPost2010PropOp35
 70
     1
102
RTVSPost2010Prop36
280
     0
102
RTVSPost2010PropOp36
 70
     1
102
RTVSPost2010Prop37
 90
       50
102
RTVSPost2010PropOp37
 70
     1
102
RTVSPost2010Prop38
140
0.0
102
RTVSPost2010PropOp38
 70
     1
102
RTVSPost2010Prop39
140
1.0
102
RTVSPost2010PropOp39
 70
     1
102
RTVSPost2010Prop40
 90
        0
102
RTVSPost2010PropOp40
 70
     1
102
RTVSPost2010Prop41ColorIndex
 90
       18
102
RTVSPost2010Prop41ColorRGB
 90
        0
102
RTVSPost2010PropOp41
 70
     1
102
RTVSPost2010Prop42
 90
       50
102
RTVSPost2010PropOp42
 70
     1
102
RTVSPost2010Prop43
 90
        3
102
RTVSPost2010PropOp43
 70
     1
102
RTVSPost2010Prop44ColorIndex
 90
        5
102
RTVSPost2010Prop44ColorRGB
 90
      255
102
RTVSPost2010PropOp44
 70
     1
102
RTVSPost2010Prop45
280
     0
102
RTVSPost2010PropOp45
 70
     1
102
RTVSPost2010Prop46
 90
       50
102
RTVSPost2010PropOp46
 70
     1
102
RTVSPost2010Prop47
 90
       50
102
RTVSPost2010PropOp47
 70
     1
102
RTVSPost2010Prop48
 90
       50
102
RTVSPost2010PropOp48
 70
     1
102
RTVSPost2010Prop49
280
     0
102
RTVSPost2010PropOp49
 70
     1
102
RTVSPost2010Prop50
 90
       50
102
RTVSPost2010PropOp50
 70
     1
102
RTVSPost2010Prop51ColorIndex
 90
      256
102
RTVSPost2010Prop51ColorRGB
 90
-16777216
102
RTVSPost2010PropOp51
 70
     0
102
RTVSPost2010Prop52
140
1.0
102
RTVSPost2010PropOp52
 70
     0
102
RTVSPost2010Prop53
 90
        2
102
RTVSPost2010PropOp53
 70
     1
102
RTVSPost2010Prop54
  1
strokes_ogs.tif
102
RTVSPost2010PropOp54
 70
     1
102
RTVSPost2010Prop55
280
     0
102
RTVSPost2010PropOp55
 70
     1
102
RTVSPost2010Prop56
140
1.0
102
RTVSPost2010PropOp56
 70
     1
102
RTVSPost2010Prop57
140
1.0
102
RTVSPost2010PropOp57
 70
     1
102
RTVSPropertyOp0
 70
     0
102
RTVSPropertyOp1
 70
     0
102
RTVSPropertyOp2
 70
     0
102
RTVSPropertyOp3
 70
     0
102
RTVSPropertyOp4
 70
     0
102
RTVSPropertyOp5
 70
     0
102
RTVSPropertyOp6
 70
     0
102
RTVSPropertyOp7
 70
     0
102
RTVSPropertyOp8
 70
     0
102
RTVSPropertyOp9
 70
     0
102
RTVSPropertyOp10
 70
     0
102
RTVSPropertyOp11
 70
     0
102
RTVSPropertyOp12
 70
     0
102
RTVSPropertyOp13
 70
     0
102
RTVSPropertyOp14
 70
     2
102
RTVSPropertyOp15
 70
     0
102
RTVSPropertyOp16
 70
     0
102
RTVSPropertyOp17
 70
     0
102
RTVSPropertyOp18
 70
     0
102
RTVSPropertyOp19
 70
     0
102
RTVSPropertyOp20
 70
     0
102
RTVSPropertyOp21
 70
     0
102
RTVSPropertyOp22
 70
     0
102
RTVSPropertyOp23
 70
     0
102
RTVSPropertyOp24
 70
     0
102
RTVSPropertyOp25
 70
     0
102
RTVSPropertyOp26
 70
     0
102
RTVSPropertyOp27
 70
     0
102
RTVSPropertyOp28
 70
     1
102
RTVSPropertyOp29
 70
     1
102
RTVSPropertyOp30
 70
     1
102
RTVSPropertyOp31
 70
     1
102
RTVSPropertyOp32
 70
     1
102
RTVSPropertyOp33
 70
     1
102
RTVSPropertyOp34
 70
     1
102
RTVSPropertyOp35
 70
     1
102
RTVSPropertyOp36
 70
     1
102
RTVSPropertyOp37
 70
     1
102
RTVSPropertyOp38
 70
     1
102
RTVSPropertyOp39
 70
     1
102
RTVSPropertyOp40
 70
     1
102
RTVSPropertyOp41
 70
     1
102
RTVSPropertyOp42
 70
     1
102
RTVSPropertyOp43
 70
     1
102
RTVSPropertyOp44
 70
     1
102
RTVSPropertyOp45
 70
     1
102
RTVSPropertyOp46
 70
     1
102
RTVSPropertyOp47
 70
     1
102
RTVSPropertyOp48
 70
     1
102
RTVSPropertyOp49
 70
     1
102
RTVSPropertyOp50
 70
     1
102
RTVSPropertyOp51
 70
     0
102
RTVSPropertyOp52
 70
     0
102
RTVSPropertyOp53
 70
     1
102
RTVSPropertyOp54
 70
     1
102
RTVSPropertyOp55
 70
     1
102
RTVSPropertyOp56
 70
     1
102
RTVSPropertyOp57
 70
     1
102
RTVSPropertyOp58
 70
     1
102
RTVSPropertyOp59
 70
     1
102
RTVSPropertyOp60
 70
     1
102
RTVSPropertyOp61
 70
     1
102
RTVSPropertyOp62
 70
     1
  0
XRECORD
  5
A2A4
102
{ACAD_REACTORS
330
A2A3
102
}
330
A2A3
100
AcDbXrecord
280
     1
102
RTVSPost2010Prop28
280
     0
102
RTVSPost2010PropOp28
 70
     1
102
RTVSPost2010Prop29
280
     1
102
RTVSPost2010PropOp29
 70
     1
102
RTVSPost2010Prop30
280
     1
102
RTVSPost2010PropOp30
 70
     1
102
RTVSPost2010Prop31
280
     0
102
RTVSPost2010PropOp31
 70
     1
102
RTVSPost2010Prop32
280
     0
102
RTVSPost2010PropOp32
 70
     1
102
RTVSPost2010Prop33
280
     0
102
RTVSPost2010PropOp33
 70
     1
102
RTVSPost2010Prop34
280
     0
102
RTVSPost2010PropOp34
 70
     1
102
RTVSPost2010Prop35
280
     0
102
RTVSPost2010PropOp35
 70
     1
102
RTVSPost2010Prop36
280
     0
102
RTVSPost2010PropOp36
 70
     1
102
RTVSPost2010Prop37
 90
       50
102
RTVSPost2010PropOp37
 70
     1
102
RTVSPost2010Prop38
140
0.0
102
RTVSPost2010PropOp38
 70
     1
102
RTVSPost2010Prop39
140
1.0
102
RTVSPost2010PropOp39
 70
     1
102
RTVSPost2010Prop40
 90
        0
102
RTVSPost2010PropOp40
 70
     1
102
RTVSPost2010Prop41ColorIndex
 90
       18
102
RTVSPost2010Prop41ColorRGB
 90
        0
102
RTVSPost2010PropOp41
 70
     1
102
RTVSPost2010Prop42
 90
       50
102
RTVSPost2010PropOp42
 70
     1
102
RTVSPost2010Prop43
 90
        3
102
RTVSPost2010PropOp43
 70
     1
102
RTVSPost2010Prop44ColorIndex
 90
        5
102
RTVSPost2010Prop44ColorRGB
 90
      255
102
RTVSPost2010PropOp44
 70
     1
102
RTVSPost2010Prop45
280
     0
102
RTVSPost2010PropOp45
 70
     1
102
RTVSPost2010Prop46
 90
       50
102
RTVSPost2010PropOp46
 70
     1
102
RTVSPost2010Prop47
 90
       50
102
RTVSPost2010PropOp47
 70
     1
102
RTVSPost2010Prop48
 90
       50
102
RTVSPost2010PropOp48
 70
     1
102
RTVSPost2010Prop49
280
     0
102
RTVSPost2010PropOp49
 70
     1
102
RTVSPost2010Prop50
 90
       50
102
RTVSPost2010PropOp50
 70
     1
102
RTVSPost2010Prop51ColorIndex
 90
      256
102
RTVSPost2010Prop51ColorRGB
 90
-16777216
102
RTVSPost2010PropOp51
 70
     0
102
RTVSPost2010Prop52
140
1.0
102
RTVSPost2010PropOp52
 70
     0
102
RTVSPost2010Prop53
 90
        2
102
RTVSPost2010PropOp53
 70
     1
102
RTVSPost2010Prop54
  1
strokes_ogs.tif
102
RTVSPost2010PropOp54
 70
     1
102
RTVSPost2010Prop55
280
     0
102
RTVSPost2010PropOp55
 70
     1
102
RTVSPost2010Prop56
140
1.0
102
RTVSPost2010PropOp56
 70
     1
102
RTVSPost2010Prop57
140
1.0
102
RTVSPost2010PropOp57
 70
     1
102
RTVSPropertyOp0
 70
     1
102
RTVSPropertyOp1
 70
     1
102
RTVSPropertyOp2
 70
     1
102
RTVSPropertyOp3
 70
     1
102
RTVSPropertyOp4
 70
     1
102
RTVSPropertyOp5
 70
     1
102
RTVSPropertyOp6
 70
     1
102
RTVSPropertyOp7
 70
     1
102
RTVSPropertyOp8
 70
     1
102
RTVSPropertyOp9
 70
     1
102
RTVSPropertyOp10
 70
     1
102
RTVSPropertyOp11
 70
     1
102
RTVSPropertyOp12
 70
     1
102
RTVSPropertyOp13
 70
     1
102
RTVSPropertyOp14
 70
     1
102
RTVSPropertyOp15
 70
     1
102
RTVSPropertyOp16
 70
     1
102
RTVSPropertyOp17
 70
     1
102
RTVSPropertyOp18
 70
     1
102
RTVSPropertyOp19
 70
     1
102
RTVSPropertyOp20
 70
     1
102
RTVSPropertyOp21
 70
     1
102
RTVSPropertyOp22
 70
     1
102
RTVSPropertyOp23
 70
     1
102
RTVSPropertyOp24
 70
     1
102
RTVSPropertyOp25
 70
     1
102
RTVSPropertyOp26
 70
     1
102
RTVSPropertyOp27
 70
     1
102
RTVSPropertyOp28
 70
     1
102
RTVSPropertyOp29
 70
     1
102
RTVSPropertyOp30
 70
     1
102
RTVSPropertyOp31
 70
     1
102
RTVSPropertyOp32
 70
     1
102
RTVSPropertyOp33
 70
     1
102
RTVSPropertyOp34
 70
     1
102
RTVSPropertyOp35
 70
     1
102
RTVSPropertyOp36
 70
     1
102
RTVSPropertyOp37
 70
     1
102
RTVSPropertyOp38
 70
     1
102
RTVSPropertyOp39
 70
     1
102
RTVSPropertyOp40
 70
     1
102
RTVSPropertyOp41
 70
     1
102
RTVSPropertyOp42
 70
     1
102
RTVSPropertyOp43
 70
     1
102
RTVSPropertyOp44
 70
     1
102
RTVSPropertyOp45
 70
     1
102
RTVSPropertyOp46
 70
     1
102
RTVSPropertyOp47
 70
     1
102
RTVSPropertyOp48
 70
     1
102
RTVSPropertyOp49
 70
     1
102
RTVSPropertyOp50
 70
     1
102
RTVSPropertyOp51
 70
     0
102
RTVSPropertyOp52
 70
     0
102
RTVSPropertyOp53
 70
     1
102
RTVSPropertyOp54
 70
     1
102
RTVSPropertyOp55
 70
     1
102
RTVSPropertyOp56
 70
     1
102
RTVSPropertyOp57
 70
     1
102
RTVSPropertyOp58
 70
     1
102
RTVSPropertyOp59
 70
     1
102
RTVSPropertyOp60
 70
     1
102
RTVSPropertyOp61
 70
     1
102
RTVSPropertyOp62
 70
     1
  0
XRECORD
  5
A2C2
102
{ACAD_REACTORS
330
A2C1
102
}
330
A2C1
100
AcDbXrecord
280
     1
102
RTVSPost2010Prop28
280
     0
102
RTVSPost2010PropOp28
 70
     1
102
RTVSPost2010Prop29
280
     1
102
RTVSPost2010PropOp29
 70
     1
102
RTVSPost2010Prop30
280
     1
102
RTVSPost2010PropOp30
 70
     1
102
RTVSPost2010Prop31
280
     0
102
RTVSPost2010PropOp31
 70
     1
102
RTVSPost2010Prop32
280
     0
102
RTVSPost2010PropOp32
 70
     1
102
RTVSPost2010Prop33
280
     0
102
RTVSPost2010PropOp33
 70
     1
102
RTVSPost2010Prop34
280
     0
102
RTVSPost2010PropOp34
 70
     1
102
RTVSPost2010Prop35
280
     0
102
RTVSPost2010PropOp35
 70
     1
102
RTVSPost2010Prop36
280
     0
102
RTVSPost2010PropOp36
 70
     1
102
RTVSPost2010Prop37
 90
       50
102
RTVSPost2010PropOp37
 70
     1
102
RTVSPost2010Prop38
140
0.0
102
RTVSPost2010PropOp38
 70
     1
102
RTVSPost2010Prop39
140
1.0
102
RTVSPost2010PropOp39
 70
     1
102
RTVSPost2010Prop40
 90
        0
102
RTVSPost2010PropOp40
 70
     1
102
RTVSPost2010Prop41ColorIndex
 90
       18
102
RTVSPost2010Prop41ColorRGB
 90
        0
102
RTVSPost2010PropOp41
 70
     1
102
RTVSPost2010Prop42
 90
       50
102
RTVSPost2010PropOp42
 70
     1
102
RTVSPost2010Prop43
 90
        3
102
RTVSPost2010PropOp43
 70
     1
102
RTVSPost2010Prop44ColorIndex
 90
        5
102
RTVSPost2010Prop44ColorRGB
 90
      255
102
RTVSPost2010PropOp44
 70
     1
102
RTVSPost2010Prop45
280
     0
102
RTVSPost2010PropOp45
 70
     1
102
RTVSPost2010Prop46
 90
       50
102
RTVSPost2010PropOp46
 70
     1
102
RTVSPost2010Prop47
 90
       50
102
RTVSPost2010PropOp47
 70
     1
102
RTVSPost2010Prop48
 90
       50
102
RTVSPost2010PropOp48
 70
     1
102
RTVSPost2010Prop49
280
     0
102
RTVSPost2010PropOp49
 70
     1
102
RTVSPost2010Prop50
 90
       50
102
RTVSPost2010PropOp50
 70
     1
102
RTVSPost2010Prop51ColorIndex
 90
      256
102
RTVSPost2010Prop51ColorRGB
 90
-16777216
102
RTVSPost2010PropOp51
 70
     0
102
RTVSPost2010Prop52
140
1.0
102
RTVSPost2010PropOp52
 70
     0
102
RTVSPost2010Prop53
 90
        2
102
RTVSPost2010PropOp53
 70
     1
102
RTVSPost2010Prop54
  1
strokes_ogs.tif
102
RTVSPost2010PropOp54
 70
     1
102
RTVSPost2010Prop55
280
     0
102
RTVSPost2010PropOp55
 70
     1
102
RTVSPost2010Prop56
140
1.0
102
RTVSPost2010PropOp56
 70
     1
102
RTVSPost2010Prop57
140
1.0
102
RTVSPost2010PropOp57
 70
     1
102
RTVSPropertyOp0
 70
     1
102
RTVSPropertyOp1
 70
     1
102
RTVSPropertyOp2
 70
     1
102
RTVSPropertyOp3
 70
     1
102
RTVSPropertyOp4
 70
     1
102
RTVSPropertyOp5
 70
     1
102
RTVSPropertyOp6
 70
     1
102
RTVSPropertyOp7
 70
     1
102
RTVSPropertyOp8
 70
     1
102
RTVSPropertyOp9
 70
     1
102
RTVSPropertyOp10
 70
     1
102
RTVSPropertyOp11
 70
     1
102
RTVSPropertyOp12
 70
     1
102
RTVSPropertyOp13
 70
     1
102
RTVSPropertyOp14
 70
     1
102
RTVSPropertyOp15
 70
     1
102
RTVSPropertyOp16
 70
     1
102
RTVSPropertyOp17
 70
     1
102
RTVSPropertyOp18
 70
     1
102
RTVSPropertyOp19
 70
     1
102
RTVSPropertyOp20
 70
     1
102
RTVSPropertyOp21
 70
     1
102
RTVSPropertyOp22
 70
     1
102
RTVSPropertyOp23
 70
     1
102
RTVSPropertyOp24
 70
     1
102
RTVSPropertyOp25
 70
     1
102
RTVSPropertyOp26
 70
     1
102
RTVSPropertyOp27
 70
     1
102
RTVSPropertyOp28
 70
     1
102
RTVSPropertyOp29
 70
     1
102
RTVSPropertyOp30
 70
     1
102
RTVSPropertyOp31
 70
     1
102
RTVSPropertyOp32
 70
     1
102
RTVSPropertyOp33
 70
     1
102
RTVSPropertyOp34
 70
     1
102
RTVSPropertyOp35
 70
     1
102
RTVSPropertyOp36
 70
     1
102
RTVSPropertyOp37
 70
     1
102
RTVSPropertyOp38
 70
     1
102
RTVSPropertyOp39
 70
     1
102
RTVSPropertyOp40
 70
     1
102
RTVSPropertyOp41
 70
     1
102
RTVSPropertyOp42
 70
     1
102
RTVSPropertyOp43
 70
     1
102
RTVSPropertyOp44
 70
     1
102
RTVSPropertyOp45
 70
     1
102
RTVSPropertyOp46
 70
     1
102
RTVSPropertyOp47
 70
     1
102
RTVSPropertyOp48
 70
     1
102
RTVSPropertyOp49
 70
     1
102
RTVSPropertyOp50
 70
     1
102
RTVSPropertyOp51
 70
     0
102
RTVSPropertyOp52
 70
     0
102
RTVSPropertyOp53
 70
     1
102
RTVSPropertyOp54
 70
     1
102
RTVSPropertyOp55
 70
     1
102
RTVSPropertyOp56
 70
     1
102
RTVSPropertyOp57
 70
     1
102
RTVSPropertyOp58
 70
     1
102
RTVSPropertyOp59
 70
     1
102
RTVSPropertyOp60
 70
     1
102
RTVSPropertyOp61
 70
     1
102
RTVSPropertyOp62
 70
     1
  0
XRECORD
  5
A2C0
102
{ACAD_REACTORS
330
A2BF
102
}
330
A2BF
100
AcDbXrecord
280
     1
102
RTVSPost2010Prop28
280
     0
102
RTVSPost2010PropOp28
 70
     1
102
RTVSPost2010Prop29
280
     1
102
RTVSPost2010PropOp29
 70
     1
102
RTVSPost2010Prop30
280
     1
102
RTVSPost2010PropOp30
 70
     1
102
RTVSPost2010Prop31
280
     0
102
RTVSPost2010PropOp31
 70
     1
102
RTVSPost2010Prop32
280
     0
102
RTVSPost2010PropOp32
 70
     1
102
RTVSPost2010Prop33
280
     0
102
RTVSPost2010PropOp33
 70
     1
102
RTVSPost2010Prop34
280
     0
102
RTVSPost2010PropOp34
 70
     1
102
RTVSPost2010Prop35
280
     0
102
RTVSPost2010PropOp35
 70
     1
102
RTVSPost2010Prop36
280
     0
102
RTVSPost2010PropOp36
 70
     1
102
RTVSPost2010Prop37
 90
       50
102
RTVSPost2010PropOp37
 70
     1
102
RTVSPost2010Prop38
140
0.0
102
RTVSPost2010PropOp38
 70
     1
102
RTVSPost2010Prop39
140
1.0
102
RTVSPost2010PropOp39
 70
     1
102
RTVSPost2010Prop40
 90
        0
102
RTVSPost2010PropOp40
 70
     1
102
RTVSPost2010Prop41ColorIndex
 90
       18
102
RTVSPost2010Prop41ColorRGB
 90
        0
102
RTVSPost2010PropOp41
 70
     1
102
RTVSPost2010Prop42
 90
       50
102
RTVSPost2010PropOp42
 70
     1
102
RTVSPost2010Prop43
 90
        3
102
RTVSPost2010PropOp43
 70
     1
102
RTVSPost2010Prop44ColorIndex
 90
        5
102
RTVSPost2010Prop44ColorRGB
 90
      255
102
RTVSPost2010PropOp44
 70
     1
102
RTVSPost2010Prop45
280
     0
102
RTVSPost2010PropOp45
 70
     1
102
RTVSPost2010Prop46
 90
       50
102
RTVSPost2010PropOp46
 70
     1
102
RTVSPost2010Prop47
 90
       50
102
RTVSPost2010PropOp47
 70
     1
102
RTVSPost2010Prop48
 90
       50
102
RTVSPost2010PropOp48
 70
     1
102
RTVSPost2010Prop49
280
     0
102
RTVSPost2010PropOp49
 70
     1
102
RTVSPost2010Prop50
 90
       50
102
RTVSPost2010PropOp50
 70
     1
102
RTVSPost2010Prop51ColorIndex
 90
      256
102
RTVSPost2010Prop51ColorRGB
 90
-16777216
102
RTVSPost2010PropOp51
 70
     0
102
RTVSPost2010Prop52
140
1.0
102
RTVSPost2010PropOp52
 70
     0
102
RTVSPost2010Prop53
 90
        2
102
RTVSPost2010PropOp53
 70
     1
102
RTVSPost2010Prop54
  1
strokes_ogs.tif
102
RTVSPost2010PropOp54
 70
     1
102
RTVSPost2010Prop55
280
     0
102
RTVSPost2010PropOp55
 70
     1
102
RTVSPost2010Prop56
140
1.0
102
RTVSPost2010PropOp56
 70
     1
102
RTVSPost2010Prop57
140
1.0
102
RTVSPost2010PropOp57
 70
     1
102
RTVSPropertyOp0
 70
     1
102
RTVSPropertyOp1
 70
     1
102
RTVSPropertyOp2
 70
     1
102
RTVSPropertyOp3
 70
     1
102
RTVSPropertyOp4
 70
     1
102
RTVSPropertyOp5
 70
     1
102
RTVSPropertyOp6
 70
     1
102
RTVSPropertyOp7
 70
     1
102
RTVSPropertyOp8
 70
     1
102
RTVSPropertyOp9
 70
     1
102
RTVSPropertyOp10
 70
     1
102
RTVSPropertyOp11
 70
     1
102
RTVSPropertyOp12
 70
     1
102
RTVSPropertyOp13
 70
     1
102
RTVSPropertyOp14
 70
     1
102
RTVSPropertyOp15
 70
     1
102
RTVSPropertyOp16
 70
     1
102
RTVSPropertyOp17
 70
     1
102
RTVSPropertyOp18
 70
     1
102
RTVSPropertyOp19
 70
     1
102
RTVSPropertyOp20
 70
     1
102
RTVSPropertyOp21
 70
     1
102
RTVSPropertyOp22
 70
     1
102
RTVSPropertyOp23
 70
     1
102
RTVSPropertyOp24
 70
     1
102
RTVSPropertyOp25
 70
     1
102
RTVSPropertyOp26
 70
     1
102
RTVSPropertyOp27
 70
     1
102
RTVSPropertyOp28
 70
     1
102
RTVSPropertyOp29
 70
     1
102
RTVSPropertyOp30
 70
     1
102
RTVSPropertyOp31
 70
     1
102
RTVSPropertyOp32
 70
     1
102
RTVSPropertyOp33
 70
     1
102
RTVSPropertyOp34
 70
     1
102
RTVSPropertyOp35
 70
     1
102
RTVSPropertyOp36
 70
     1
102
RTVSPropertyOp37
 70
     1
102
RTVSPropertyOp38
 70
     1
102
RTVSPropertyOp39
 70
     1
102
RTVSPropertyOp40
 70
     1
102
RTVSPropertyOp41
 70
     1
102
RTVSPropertyOp42
 70
     1
102
RTVSPropertyOp43
 70
     1
102
RTVSPropertyOp44
 70
     1
102
RTVSPropertyOp45
 70
     1
102
RTVSPropertyOp46
 70
     1
102
RTVSPropertyOp47
 70
     1
102
RTVSPropertyOp48
 70
     1
102
RTVSPropertyOp49
 70
     1
102
RTVSPropertyOp50
 70
     1
102
RTVSPropertyOp51
 70
     0
102
RTVSPropertyOp52
 70
     0
102
RTVSPropertyOp53
 70
     1
102
RTVSPropertyOp54
 70
     1
102
RTVSPropertyOp55
 70
     1
102
RTVSPropertyOp56
 70
     1
102
RTVSPropertyOp57
 70
     1
102
RTVSPropertyOp58
 70
     1
102
RTVSPropertyOp59
 70
     1
102
RTVSPropertyOp60
 70
     1
102
RTVSPropertyOp61
 70
     1
102
RTVSPropertyOp62
 70
     1
  0
XRECORD
  5
A2BA
102
{ACAD_REACTORS
330
A2B9
102
}
330
A2B9
100
AcDbXrecord
280
     1
102
RTVSPost2010Prop28
280
     0
102
RTVSPost2010PropOp28
 70
     1
102
RTVSPost2010Prop29
280
     1
102
RTVSPost2010PropOp29
 70
     1
102
RTVSPost2010Prop30
280
     1
102
RTVSPost2010PropOp30
 70
     1
102
RTVSPost2010Prop31
280
     0
102
RTVSPost2010PropOp31
 70
     1
102
RTVSPost2010Prop32
280
     0
102
RTVSPost2010PropOp32
 70
     1
102
RTVSPost2010Prop33
280
     0
102
RTVSPost2010PropOp33
 70
     1
102
RTVSPost2010Prop34
280
     0
102
RTVSPost2010PropOp34
 70
     1
102
RTVSPost2010Prop35
280
     0
102
RTVSPost2010PropOp35
 70
     1
102
RTVSPost2010Prop36
280
     0
102
RTVSPost2010PropOp36
 70
     1
102
RTVSPost2010Prop37
 90
       50
102
RTVSPost2010PropOp37
 70
     1
102
RTVSPost2010Prop38
140
0.0
102
RTVSPost2010PropOp38
 70
     1
102
RTVSPost2010Prop39
140
1.0
102
RTVSPost2010PropOp39
 70
     1
102
RTVSPost2010Prop40
 90
        0
102
RTVSPost2010PropOp40
 70
     1
102
RTVSPost2010Prop41ColorIndex
 90
       18
102
RTVSPost2010Prop41ColorRGB
 90
        0
102
RTVSPost2010PropOp41
 70
     1
102
RTVSPost2010Prop42
 90
       50
102
RTVSPost2010PropOp42
 70
     1
102
RTVSPost2010Prop43
 90
        3
102
RTVSPost2010PropOp43
 70
     1
102
RTVSPost2010Prop44ColorIndex
 90
        5
102
RTVSPost2010Prop44ColorRGB
 90
      255
102
RTVSPost2010PropOp44
 70
     1
102
RTVSPost2010Prop45
280
     0
102
RTVSPost2010PropOp45
 70
     1
102
RTVSPost2010Prop46
 90
       50
102
RTVSPost2010PropOp46
 70
     1
102
RTVSPost2010Prop47
 90
       50
102
RTVSPost2010PropOp47
 70
     1
102
RTVSPost2010Prop48
 90
       50
102
RTVSPost2010PropOp48
 70
     1
102
RTVSPost2010Prop49
280
     0
102
RTVSPost2010PropOp49
 70
     1
102
RTVSPost2010Prop50
 90
       50
102
RTVSPost2010PropOp50
 70
     1
102
RTVSPost2010Prop51ColorIndex
 90
      256
102
RTVSPost2010Prop51ColorRGB
 90
-16777216
102
RTVSPost2010PropOp51
 70
     0
102
RTVSPost2010Prop52
140
1.0
102
RTVSPost2010PropOp52
 70
     0
102
RTVSPost2010Prop53
 90
        2
102
RTVSPost2010PropOp53
 70
     1
102
RTVSPost2010Prop54
  1
strokes_ogs.tif
102
RTVSPost2010PropOp54
 70
     1
102
RTVSPost2010Prop55
280
     0
102
RTVSPost2010PropOp55
 70
     1
102
RTVSPost2010Prop56
140
1.0
102
RTVSPost2010PropOp56
 70
     1
102
RTVSPost2010Prop57
140
1.0
102
RTVSPost2010PropOp57
 70
     1
102
RTVSPropertyOp0
 70
     1
102
RTVSPropertyOp1
 70
     1
102
RTVSPropertyOp2
 70
     1
102
RTVSPropertyOp3
 70
     1
102
RTVSPropertyOp4
 70
     1
102
RTVSPropertyOp5
 70
     1
102
RTVSPropertyOp6
 70
     1
102
RTVSPropertyOp7
 70
     1
102
RTVSPropertyOp8
 70
     1
102
RTVSPropertyOp9
 70
     1
102
RTVSPropertyOp10
 70
     1
102
RTVSPropertyOp11
 70
     1
102
RTVSPropertyOp12
 70
     1
102
RTVSPropertyOp13
 70
     1
102
RTVSPropertyOp14
 70
     1
102
RTVSPropertyOp15
 70
     1
102
RTVSPropertyOp16
 70
     1
102
RTVSPropertyOp17
 70
     1
102
RTVSPropertyOp18
 70
     1
102
RTVSPropertyOp19
 70
     1
102
RTVSPropertyOp20
 70
     1
102
RTVSPropertyOp21
 70
     1
102
RTVSPropertyOp22
 70
     1
102
RTVSPropertyOp23
 70
     1
102
RTVSPropertyOp24
 70
     1
102
RTVSPropertyOp25
 70
     1
102
RTVSPropertyOp26
 70
     1
102
RTVSPropertyOp27
 70
     1
102
RTVSPropertyOp28
 70
     1
102
RTVSPropertyOp29
 70
     1
102
RTVSPropertyOp30
 70
     1
102
RTVSPropertyOp31
 70
     1
102
RTVSPropertyOp32
 70
     1
102
RTVSPropertyOp33
 70
     1
102
RTVSPropertyOp34
 70
     1
102
RTVSPropertyOp35
 70
     1
102
RTVSPropertyOp36
 70
     1
102
RTVSPropertyOp37
 70
     1
102
RTVSPropertyOp38
 70
     1
102
RTVSPropertyOp39
 70
     1
102
RTVSPropertyOp40
 70
     1
102
RTVSPropertyOp41
 70
     1
102
RTVSPropertyOp42
 70
     1
102
RTVSPropertyOp43
 70
     1
102
RTVSPropertyOp44
 70
     1
102
RTVSPropertyOp45
 70
     1
102
RTVSPropertyOp46
 70
     1
102
RTVSPropertyOp47
 70
     1
102
RTVSPropertyOp48
 70
     1
102
RTVSPropertyOp49
 70
     1
102
RTVSPropertyOp50
 70
     1
102
RTVSPropertyOp51
 70
     0
102
RTVSPropertyOp52
 70
     0
102
RTVSPropertyOp53
 70
     1
102
RTVSPropertyOp54
 70
     1
102
RTVSPropertyOp55
 70
     1
102
RTVSPropertyOp56
 70
     1
102
RTVSPropertyOp57
 70
     1
102
RTVSPropertyOp58
 70
     1
102
RTVSPropertyOp59
 70
     1
102
RTVSPropertyOp60
 70
     1
102
RTVSPropertyOp61
 70
     1
102
RTVSPropertyOp62
 70
     1
  0
XRECORD
  5
A2BC
102
{ACAD_REACTORS
330
A2BB
102
}
330
A2BB
100
AcDbXrecord
280
     1
102
RTVSPost2010Prop28
280
     0
102
RTVSPost2010PropOp28
 70
     1
102
RTVSPost2010Prop29
280
     1
102
RTVSPost2010PropOp29
 70
     1
102
RTVSPost2010Prop30
280
     1
102
RTVSPost2010PropOp30
 70
     1
102
RTVSPost2010Prop31
280
     0
102
RTVSPost2010PropOp31
 70
     1
102
RTVSPost2010Prop32
280
     0
102
RTVSPost2010PropOp32
 70
     1
102
RTVSPost2010Prop33
280
     0
102
RTVSPost2010PropOp33
 70
     1
102
RTVSPost2010Prop34
280
     0
102
RTVSPost2010PropOp34
 70
     1
102
RTVSPost2010Prop35
280
     0
102
RTVSPost2010PropOp35
 70
     1
102
RTVSPost2010Prop36
280
     0
102
RTVSPost2010PropOp36
 70
     1
102
RTVSPost2010Prop37
 90
       50
102
RTVSPost2010PropOp37
 70
     1
102
RTVSPost2010Prop38
140
0.0
102
RTVSPost2010PropOp38
 70
     1
102
RTVSPost2010Prop39
140
1.0
102
RTVSPost2010PropOp39
 70
     1
102
RTVSPost2010Prop40
 90
        0
102
RTVSPost2010PropOp40
 70
     1
102
RTVSPost2010Prop41ColorIndex
 90
       18
102
RTVSPost2010Prop41ColorRGB
 90
        0
102
RTVSPost2010PropOp41
 70
     1
102
RTVSPost2010Prop42
 90
       50
102
RTVSPost2010PropOp42
 70
     1
102
RTVSPost2010Prop43
 90
        3
102
RTVSPost2010PropOp43
 70
     1
102
RTVSPost2010Prop44ColorIndex
 90
        5
102
RTVSPost2010Prop44ColorRGB
 90
      255
102
RTVSPost2010PropOp44
 70
     1
102
RTVSPost2010Prop45
280
     0
102
RTVSPost2010PropOp45
 70
     1
102
RTVSPost2010Prop46
 90
       50
102
RTVSPost2010PropOp46
 70
     1
102
RTVSPost2010Prop47
 90
       50
102
RTVSPost2010PropOp47
 70
     1
102
RTVSPost2010Prop48
 90
       50
102
RTVSPost2010PropOp48
 70
     1
102
RTVSPost2010Prop49
280
     0
102
RTVSPost2010PropOp49
 70
     1
102
RTVSPost2010Prop50
 90
       50
102
RTVSPost2010PropOp50
 70
     1
102
RTVSPost2010Prop51ColorIndex
 90
      256
102
RTVSPost2010Prop51ColorRGB
 90
-16777216
102
RTVSPost2010PropOp51
 70
     0
102
RTVSPost2010Prop52
140
1.0
102
RTVSPost2010PropOp52
 70
     0
102
RTVSPost2010Prop53
 90
        2
102
RTVSPost2010PropOp53
 70
     1
102
RTVSPost2010Prop54
  1
strokes_ogs.tif
102
RTVSPost2010PropOp54
 70
     1
102
RTVSPost2010Prop55
280
     0
102
RTVSPost2010PropOp55
 70
     1
102
RTVSPost2010Prop56
140
1.0
102
RTVSPost2010PropOp56
 70
     1
102
RTVSPost2010Prop57
140
1.0
102
RTVSPost2010PropOp57
 70
     1
102
RTVSPropertyOp0
 70
     1
102
RTVSPropertyOp1
 70
     1
102
RTVSPropertyOp2
 70
     1
102
RTVSPropertyOp3
 70
     1
102
RTVSPropertyOp4
 70
     1
102
RTVSPropertyOp5
 70
     1
102
RTVSPropertyOp6
 70
     1
102
RTVSPropertyOp7
 70
     1
102
RTVSPropertyOp8
 70
     1
102
RTVSPropertyOp9
 70
     1
102
RTVSPropertyOp10
 70
     1
102
RTVSPropertyOp11
 70
     1
102
RTVSPropertyOp12
 70
     1
102
RTVSPropertyOp13
 70
     1
102
RTVSPropertyOp14
 70
     1
102
RTVSPropertyOp15
 70
     1
102
RTVSPropertyOp16
 70
     1
102
RTVSPropertyOp17
 70
     1
102
RTVSPropertyOp18
 70
     1
102
RTVSPropertyOp19
 70
     1
102
RTVSPropertyOp20
 70
     1
102
RTVSPropertyOp21
 70
     1
102
RTVSPropertyOp22
 70
     1
102
RTVSPropertyOp23
 70
     1
102
RTVSPropertyOp24
 70
     1
102
RTVSPropertyOp25
 70
     1
102
RTVSPropertyOp26
 70
     1
102
RTVSPropertyOp27
 70
     1
102
RTVSPropertyOp28
 70
     1
102
RTVSPropertyOp29
 70
     1
102
RTVSPropertyOp30
 70
     1
102
RTVSPropertyOp31
 70
     1
102
RTVSPropertyOp32
 70
     1
102
RTVSPropertyOp33
 70
     1
102
RTVSPropertyOp34
 70
     1
102
RTVSPropertyOp35
 70
     1
102
RTVSPropertyOp36
 70
     1
102
RTVSPropertyOp37
 70
     1
102
RTVSPropertyOp38
 70
     1
102
RTVSPropertyOp39
 70
     1
102
RTVSPropertyOp40
 70
     1
102
RTVSPropertyOp41
 70
     1
102
RTVSPropertyOp42
 70
     1
102
RTVSPropertyOp43
 70
     1
102
RTVSPropertyOp44
 70
     1
102
RTVSPropertyOp45
 70
     1
102
RTVSPropertyOp46
 70
     1
102
RTVSPropertyOp47
 70
     1
102
RTVSPropertyOp48
 70
     1
102
RTVSPropertyOp49
 70
     1
102
RTVSPropertyOp50
 70
     1
102
RTVSPropertyOp51
 70
     0
102
RTVSPropertyOp52
 70
     0
102
RTVSPropertyOp53
 70
     1
102
RTVSPropertyOp54
 70
     1
102
RTVSPropertyOp55
 70
     1
102
RTVSPropertyOp56
 70
     1
102
RTVSPropertyOp57
 70
     1
102
RTVSPropertyOp58
 70
     1
102
RTVSPropertyOp59
 70
     1
102
RTVSPropertyOp60
 70
     1
102
RTVSPropertyOp61
 70
     1
102
RTVSPropertyOp62
 70
     1
  0
XRECORD
  5
A2AA
102
{ACAD_REACTORS
330
A2A9
102
}
330
A2A9
100
AcDbXrecord
280
     1
102
RTVSPost2010Prop28
280
     0
102
RTVSPost2010PropOp28
 70
     1
102
RTVSPost2010Prop29
280
     1
102
RTVSPost2010PropOp29
 70
     1
102
RTVSPost2010Prop30
280
     1
102
RTVSPost2010PropOp30
 70
     1
102
RTVSPost2010Prop31
280
     0
102
RTVSPost2010PropOp31
 70
     1
102
RTVSPost2010Prop32
280
     0
102
RTVSPost2010PropOp32
 70
     1
102
RTVSPost2010Prop33
280
     0
102
RTVSPost2010PropOp33
 70
     1
102
RTVSPost2010Prop34
280
     0
102
RTVSPost2010PropOp34
 70
     1
102
RTVSPost2010Prop35
280
     0
102
RTVSPost2010PropOp35
 70
     1
102
RTVSPost2010Prop36
280
     0
102
RTVSPost2010PropOp36
 70
     1
102
RTVSPost2010Prop37
 90
       50
102
RTVSPost2010PropOp37
 70
     1
102
RTVSPost2010Prop38
140
0.0
102
RTVSPost2010PropOp38
 70
     1
102
RTVSPost2010Prop39
140
1.0
102
RTVSPost2010PropOp39
 70
     1
102
RTVSPost2010Prop40
 90
        0
102
RTVSPost2010PropOp40
 70
     1
102
RTVSPost2010Prop41ColorIndex
 90
       18
102
RTVSPost2010Prop41ColorRGB
 90
        0
102
RTVSPost2010PropOp41
 70
     1
102
RTVSPost2010Prop42
 90
       50
102
RTVSPost2010PropOp42
 70
     1
102
RTVSPost2010Prop43
 90
        3
102
RTVSPost2010PropOp43
 70
     1
102
RTVSPost2010Prop44ColorIndex
 90
        5
102
RTVSPost2010Prop44ColorRGB
 90
      255
102
RTVSPost2010PropOp44
 70
     1
102
RTVSPost2010Prop45
280
     0
102
RTVSPost2010PropOp45
 70
     1
102
RTVSPost2010Prop46
 90
       50
102
RTVSPost2010PropOp46
 70
     1
102
RTVSPost2010Prop47
 90
       50
102
RTVSPost2010PropOp47
 70
     1
102
RTVSPost2010Prop48
 90
       50
102
RTVSPost2010PropOp48
 70
     1
102
RTVSPost2010Prop49
280
     0
102
RTVSPost2010PropOp49
 70
     1
102
RTVSPost2010Prop50
 90
       50
102
RTVSPost2010PropOp50
 70
     1
102
RTVSPost2010Prop51ColorIndex
 90
      256
102
RTVSPost2010Prop51ColorRGB
 90
-16777216
102
RTVSPost2010PropOp51
 70
     0
102
RTVSPost2010Prop52
140
1.0
102
RTVSPost2010PropOp52
 70
     0
102
RTVSPost2010Prop53
 90
        2
102
RTVSPost2010PropOp53
 70
     1
102
RTVSPost2010Prop54
  1
strokes_ogs.tif
102
RTVSPost2010PropOp54
 70
     1
102
RTVSPost2010Prop55
280
     0
102
RTVSPost2010PropOp55
 70
     1
102
RTVSPost2010Prop56
140
1.0
102
RTVSPost2010PropOp56
 70
     1
102
RTVSPost2010Prop57
140
1.0
102
RTVSPost2010PropOp57
 70
     1
102
RTVSPropertyOp0
 70
     1
102
RTVSPropertyOp1
 70
     1
102
RTVSPropertyOp2
 70
     1
102
RTVSPropertyOp3
 70
     1
102
RTVSPropertyOp4
 70
     1
102
RTVSPropertyOp5
 70
     1
102
RTVSPropertyOp6
 70
     1
102
RTVSPropertyOp7
 70
     1
102
RTVSPropertyOp8
 70
     1
102
RTVSPropertyOp9
 70
     1
102
RTVSPropertyOp10
 70
     1
102
RTVSPropertyOp11
 70
     1
102
RTVSPropertyOp12
 70
     1
102
RTVSPropertyOp13
 70
     1
102
RTVSPropertyOp14
 70
     1
102
RTVSPropertyOp15
 70
     1
102
RTVSPropertyOp16
 70
     1
102
RTVSPropertyOp17
 70
     1
102
RTVSPropertyOp18
 70
     1
102
RTVSPropertyOp19
 70
     1
102
RTVSPropertyOp20
 70
     1
102
RTVSPropertyOp21
 70
     1
102
RTVSPropertyOp22
 70
     1
102
RTVSPropertyOp23
 70
     1
102
RTVSPropertyOp24
 70
     1
102
RTVSPropertyOp25
 70
     1
102
RTVSPropertyOp26
 70
     1
102
RTVSPropertyOp27
 70
     1
102
RTVSPropertyOp28
 70
     1
102
RTVSPropertyOp29
 70
     1
102
RTVSPropertyOp30
 70
     1
102
RTVSPropertyOp31
 70
     1
102
RTVSPropertyOp32
 70
     1
102
RTVSPropertyOp33
 70
     1
102
RTVSPropertyOp34
 70
     1
102
RTVSPropertyOp35
 70
     1
102
RTVSPropertyOp36
 70
     1
102
RTVSPropertyOp37
 70
     1
102
RTVSPropertyOp38
 70
     1
102
RTVSPropertyOp39
 70
     1
102
RTVSPropertyOp40
 70
     1
102
RTVSPropertyOp41
 70
     1
102
RTVSPropertyOp42
 70
     1
102
RTVSPropertyOp43
 70
     1
102
RTVSPropertyOp44
 70
     1
102
RTVSPropertyOp45
 70
     1
102
RTVSPropertyOp46
 70
     1
102
RTVSPropertyOp47
 70
     1
102
RTVSPropertyOp48
 70
     1
102
RTVSPropertyOp49
 70
     1
102
RTVSPropertyOp50
 70
     1
102
RTVSPropertyOp51
 70
     0
102
RTVSPropertyOp52
 70
     0
102
RTVSPropertyOp53
 70
     1
102
RTVSPropertyOp54
 70
     1
102
RTVSPropertyOp55
 70
     1
102
RTVSPropertyOp56
 70
     1
102
RTVSPropertyOp57
 70
     1
102
RTVSPropertyOp58
 70
     1
102
RTVSPropertyOp59
 70
     1
102
RTVSPropertyOp60
 70
     1
102
RTVSPropertyOp61
 70
     1
102
RTVSPropertyOp62
 70
     1
  0
XRECORD
  5
A29E
102
{ACAD_REACTORS
330
A29D
102
}
330
A29D
100
AcDbXrecord
280
     1
102
RTVSPost2010Prop28
280
     0
102
RTVSPost2010PropOp28
 70
     1
102
RTVSPost2010Prop29
280
     1
102
RTVSPost2010PropOp29
 70
     1
102
RTVSPost2010Prop30
280
     1
102
RTVSPost2010PropOp30
 70
     1
102
RTVSPost2010Prop31
280
     0
102
RTVSPost2010PropOp31
 70
     1
102
RTVSPost2010Prop32
280
     0
102
RTVSPost2010PropOp32
 70
     1
102
RTVSPost2010Prop33
280
     0
102
RTVSPost2010PropOp33
 70
     1
102
RTVSPost2010Prop34
280
     0
102
RTVSPost2010PropOp34
 70
     1
102
RTVSPost2010Prop35
280
     0
102
RTVSPost2010PropOp35
 70
     1
102
RTVSPost2010Prop36
280
     0
102
RTVSPost2010PropOp36
 70
     1
102
RTVSPost2010Prop37
 90
       50
102
RTVSPost2010PropOp37
 70
     1
102
RTVSPost2010Prop38
140
0.0
102
RTVSPost2010PropOp38
 70
     1
102
RTVSPost2010Prop39
140
1.0
102
RTVSPost2010PropOp39
 70
     1
102
RTVSPost2010Prop40
 90
        0
102
RTVSPost2010PropOp40
 70
     1
102
RTVSPost2010Prop41ColorIndex
 90
       18
102
RTVSPost2010Prop41ColorRGB
 90
        0
102
RTVSPost2010PropOp41
 70
     1
102
RTVSPost2010Prop42
 90
       50
102
RTVSPost2010PropOp42
 70
     1
102
RTVSPost2010Prop43
 90
        3
102
RTVSPost2010PropOp43
 70
     1
102
RTVSPost2010Prop44ColorIndex
 90
        5
102
RTVSPost2010Prop44ColorRGB
 90
      255
102
RTVSPost2010PropOp44
 70
     1
102
RTVSPost2010Prop45
280
     0
102
RTVSPost2010PropOp45
 70
     1
102
RTVSPost2010Prop46
 90
       50
102
RTVSPost2010PropOp46
 70
     1
102
RTVSPost2010Prop47
 90
       50
102
RTVSPost2010PropOp47
 70
     1
102
RTVSPost2010Prop48
 90
       50
102
RTVSPost2010PropOp48
 70
     1
102
RTVSPost2010Prop49
280
     0
102
RTVSPost2010PropOp49
 70
     1
102
RTVSPost2010Prop50
 90
       50
102
RTVSPost2010PropOp50
 70
     1
102
RTVSPost2010Prop51ColorIndex
 90
      256
102
RTVSPost2010Prop51ColorRGB
 90
-16777216
102
RTVSPost2010PropOp51
 70
     0
102
RTVSPost2010Prop52
140
1.0
102
RTVSPost2010PropOp52
 70
     0
102
RTVSPost2010Prop53
 90
        2
102
RTVSPost2010PropOp53
 70
     1
102
RTVSPost2010Prop54
  1
strokes_ogs.tif
102
RTVSPost2010PropOp54
 70
     1
102
RTVSPost2010Prop55
280
     0
102
RTVSPost2010PropOp55
 70
     1
102
RTVSPost2010Prop56
140
1.0
102
RTVSPost2010PropOp56
 70
     1
102
RTVSPost2010Prop57
140
1.0
102
RTVSPost2010PropOp57
 70
     1
102
RTVSPropertyOp0
 70
     1
102
RTVSPropertyOp1
 70
     1
102
RTVSPropertyOp2
 70
     1
102
RTVSPropertyOp3
 70
     1
102
RTVSPropertyOp4
 70
     1
102
RTVSPropertyOp5
 70
     1
102
RTVSPropertyOp6
 70
     1
102
RTVSPropertyOp7
 70
     1
102
RTVSPropertyOp8
 70
     1
102
RTVSPropertyOp9
 70
     1
102
RTVSPropertyOp10
 70
     1
102
RTVSPropertyOp11
 70
     1
102
RTVSPropertyOp12
 70
     1
102
RTVSPropertyOp13
 70
     1
102
RTVSPropertyOp14
 70
     1
102
RTVSPropertyOp15
 70
     1
102
RTVSPropertyOp16
 70
     1
102
RTVSPropertyOp17
 70
     1
102
RTVSPropertyOp18
 70
     1
102
RTVSPropertyOp19
 70
     1
102
RTVSPropertyOp20
 70
     1
102
RTVSPropertyOp21
 70
     1
102
RTVSPropertyOp22
 70
     1
102
RTVSPropertyOp23
 70
     1
102
RTVSPropertyOp24
 70
     1
102
RTVSPropertyOp25
 70
     1
102
RTVSPropertyOp26
 70
     1
102
RTVSPropertyOp27
 70
     1
102
RTVSPropertyOp28
 70
     1
102
RTVSPropertyOp29
 70
     1
102
RTVSPropertyOp30
 70
     1
102
RTVSPropertyOp31
 70
     1
102
RTVSPropertyOp32
 70
     1
102
RTVSPropertyOp33
 70
     1
102
RTVSPropertyOp34
 70
     1
102
RTVSPropertyOp35
 70
     1
102
RTVSPropertyOp36
 70
     1
102
RTVSPropertyOp37
 70
     1
102
RTVSPropertyOp38
 70
     1
102
RTVSPropertyOp39
 70
     1
102
RTVSPropertyOp40
 70
     1
102
RTVSPropertyOp41
 70
     1
102
RTVSPropertyOp42
 70
     1
102
RTVSPropertyOp43
 70
     1
102
RTVSPropertyOp44
 70
     1
102
RTVSPropertyOp45
 70
     1
102
RTVSPropertyOp46
 70
     1
102
RTVSPropertyOp47
 70
     1
102
RTVSPropertyOp48
 70
     1
102
RTVSPropertyOp49
 70
     1
102
RTVSPropertyOp50
 70
     1
102
RTVSPropertyOp51
 70
     0
102
RTVSPropertyOp52
 70
     0
102
RTVSPropertyOp53
 70
     1
102
RTVSPropertyOp54
 70
     1
102
RTVSPropertyOp55
 70
     1
102
RTVSPropertyOp56
 70
     1
102
RTVSPropertyOp57
 70
     1
102
RTVSPropertyOp58
 70
     1
102
RTVSPropertyOp59
 70
     1
102
RTVSPropertyOp60
 70
     1
102
RTVSPropertyOp61
 70
     1
102
RTVSPropertyOp62
 70
     1
  0
XRECORD
  5
A2BE
102
{ACAD_REACTORS
330
A2BD
102
}
330
A2BD
100
AcDbXrecord
280
     1
102
RTVSPost2010Prop28
280
     0
102
RTVSPost2010PropOp28
 70
     1
102
RTVSPost2010Prop29
280
     1
102
RTVSPost2010PropOp29
 70
     1
102
RTVSPost2010Prop30
280
     1
102
RTVSPost2010PropOp30
 70
     1
102
RTVSPost2010Prop31
280
     0
102
RTVSPost2010PropOp31
 70
     1
102
RTVSPost2010Prop32
280
     0
102
RTVSPost2010PropOp32
 70
     1
102
RTVSPost2010Prop33
280
     0
102
RTVSPost2010PropOp33
 70
     1
102
RTVSPost2010Prop34
280
     0
102
RTVSPost2010PropOp34
 70
     1
102
RTVSPost2010Prop35
280
     0
102
RTVSPost2010PropOp35
 70
     1
102
RTVSPost2010Prop36
280
     0
102
RTVSPost2010PropOp36
 70
     1
102
RTVSPost2010Prop37
 90
       50
102
RTVSPost2010PropOp37
 70
     1
102
RTVSPost2010Prop38
140
0.0
102
RTVSPost2010PropOp38
 70
     1
102
RTVSPost2010Prop39
140
1.0
102
RTVSPost2010PropOp39
 70
     1
102
RTVSPost2010Prop40
 90
        0
102
RTVSPost2010PropOp40
 70
     1
102
RTVSPost2010Prop41ColorIndex
 90
       18
102
RTVSPost2010Prop41ColorRGB
 90
        0
102
RTVSPost2010PropOp41
 70
     1
102
RTVSPost2010Prop42
 90
       50
102
RTVSPost2010PropOp42
 70
     1
102
RTVSPost2010Prop43
 90
        3
102
RTVSPost2010PropOp43
 70
     1
102
RTVSPost2010Prop44ColorIndex
 90
        5
102
RTVSPost2010Prop44ColorRGB
 90
      255
102
RTVSPost2010PropOp44
 70
     1
102
RTVSPost2010Prop45
280
     0
102
RTVSPost2010PropOp45
 70
     1
102
RTVSPost2010Prop46
 90
       50
102
RTVSPost2010PropOp46
 70
     1
102
RTVSPost2010Prop47
 90
       50
102
RTVSPost2010PropOp47
 70
     1
102
RTVSPost2010Prop48
 90
       50
102
RTVSPost2010PropOp48
 70
     1
102
RTVSPost2010Prop49
280
     0
102
RTVSPost2010PropOp49
 70
     1
102
RTVSPost2010Prop50
 90
       50
102
RTVSPost2010PropOp50
 70
     1
102
RTVSPost2010Prop51ColorIndex
 90
      256
102
RTVSPost2010Prop51ColorRGB
 90
-16777216
102
RTVSPost2010PropOp51
 70
     0
102
RTVSPost2010Prop52
140
1.0
102
RTVSPost2010PropOp52
 70
     0
102
RTVSPost2010Prop53
 90
        2
102
RTVSPost2010PropOp53
 70
     1
102
RTVSPost2010Prop54
  1
strokes_ogs.tif
102
RTVSPost2010PropOp54
 70
     1
102
RTVSPost2010Prop55
280
     0
102
RTVSPost2010PropOp55
 70
     1
102
RTVSPost2010Prop56
140
1.0
102
RTVSPost2010PropOp56
 70
     1
102
RTVSPost2010Prop57
140
1.0
102
RTVSPost2010PropOp57
 70
     1
102
RTVSPropertyOp0
 70
     1
102
RTVSPropertyOp1
 70
     1
102
RTVSPropertyOp2
 70
     1
102
RTVSPropertyOp3
 70
     1
102
RTVSPropertyOp4
 70
     1
102
RTVSPropertyOp5
 70
     1
102
RTVSPropertyOp6
 70
     1
102
RTVSPropertyOp7
 70
     1
102
RTVSPropertyOp8
 70
     1
102
RTVSPropertyOp9
 70
     1
102
RTVSPropertyOp10
 70
     1
102
RTVSPropertyOp11
 70
     1
102
RTVSPropertyOp12
 70
     1
102
RTVSPropertyOp13
 70
     1
102
RTVSPropertyOp14
 70
     1
102
RTVSPropertyOp15
 70
     1
102
RTVSPropertyOp16
 70
     1
102
RTVSPropertyOp17
 70
     1
102
RTVSPropertyOp18
 70
     1
102
RTVSPropertyOp19
 70
     1
102
RTVSPropertyOp20
 70
     1
102
RTVSPropertyOp21
 70
     1
102
RTVSPropertyOp22
 70
     1
102
RTVSPropertyOp23
 70
     1
102
RTVSPropertyOp24
 70
     1
102
RTVSPropertyOp25
 70
     1
102
RTVSPropertyOp26
 70
     1
102
RTVSPropertyOp27
 70
     1
102
RTVSPropertyOp28
 70
     1
102
RTVSPropertyOp29
 70
     1
102
RTVSPropertyOp30
 70
     1
102
RTVSPropertyOp31
 70
     1
102
RTVSPropertyOp32
 70
     1
102
RTVSPropertyOp33
 70
     1
102
RTVSPropertyOp34
 70
     1
102
RTVSPropertyOp35
 70
     1
102
RTVSPropertyOp36
 70
     1
102
RTVSPropertyOp37
 70
     1
102
RTVSPropertyOp38
 70
     1
102
RTVSPropertyOp39
 70
     1
102
RTVSPropertyOp40
 70
     1
102
RTVSPropertyOp41
 70
     1
102
RTVSPropertyOp42
 70
     1
102
RTVSPropertyOp43
 70
     1
102
RTVSPropertyOp44
 70
     1
102
RTVSPropertyOp45
 70
     1
102
RTVSPropertyOp46
 70
     1
102
RTVSPropertyOp47
 70
     1
102
RTVSPropertyOp48
 70
     1
102
RTVSPropertyOp49
 70
     1
102
RTVSPropertyOp50
 70
     1
102
RTVSPropertyOp51
 70
     0
102
RTVSPropertyOp52
 70
     0
102
RTVSPropertyOp53
 70
     1
102
RTVSPropertyOp54
 70
     1
102
RTVSPropertyOp55
 70
     1
102
RTVSPropertyOp56
 70
     1
102
RTVSPropertyOp57
 70
     1
102
RTVSPropertyOp58
 70
     1
102
RTVSPropertyOp59
 70
     1
102
RTVSPropertyOp60
 70
     1
102
RTVSPropertyOp61
 70
     1
102
RTVSPropertyOp62
 70
     1
  0
ENDSEC
  0
EOF
